PrimaNota.ru - самый крупный в мире бесплатный архив песенных текстов, аккордов, табулатур и нот


Helheim - Av Norroen Aett - таба

Регистрация Запомнить меня
Войти через:  Facebook Google Twitter Vk Yandex Mail.ru

Helheim - Av Norroen Aett - таба

Печатать
Просмотров: 62
-----------------------------------------------------------------------------
                          Av norroen aett - Helheim
-----------------------------------------------------------------------------


    Band:  Helheim
    Album: Av norroen aett
    Song:  Av norroen aett
    Copyright (c) Solistitium Records
    Version 1.0 - 18/01/2013
    Transcribed By: ulfskeptr
    Email: malignitas-odium@hotmail.com

    http://www.helheim.com/


.  - palm mute         ,  - slight palm mute
\  - slide down to     /  - slide up to
~  - vibrato           b  - bend
h  - hammer on         p  - pull off
[] - second time       *  - see comment
t  - tap               ph - pinched harmonic
x  - staccato          () - ghost note, sustained note
"  - tremolo note      <> - trill

Suffixes for bend

f  - full bend           h - half bend
q  - quarter bend        t - tap bend
^  - hold bend           r - release bend
~  - vibrato bend

Tuning E A D G B E

Intro/Riff1
e|------------------------------------------------------------------------0-|
B|-----------------------------------3--3-3-3-3--3--3-3-3-3--3--3-3-3-3---1-|
G|-----/10--10-10-10-10--/7--7-7--9--2--2-2-2-2--2--2-2-2-2--3--3-3-3-3---2-|
D|--7---0---0--0--0--0----0--0-0--0--0--0-0-0-0--0--0-0-0-0--0--0-0-0-0---0-|
A|--------------------------------------------------------------------------|
E|--5-----------------------------------------------------------------------|

Riff2
e|---------------------------------------------------------------------------|
B|-----------------------------------3--3-3-3-3--3--3-3-3-3--3--3-3-3-3------|
G|-----/10--10-10-10-10--/7--7-7-/9--2--2-2-2-2--2--2-2-2-2--3--3-3-3-3------|
D|--7---0---0--0--0--0----0--0-0--0--0--0-0-0-0--0--0-0-0-0--0--0-0-0-0------|
A|---------------------------------------------------------------------------|
E|--5------------------------------------------------------------------------|

----------------------------------------------------------------------------|
--6--6-6-6-6--5--3--2-------------------------------------------------------|
--3--3-3-3-3--3--3--3-------------------------------------------------------|
----------------------------------------------------------------------------|
----------------------------------------------------------------------------|
----------------------------------------------------------------------------|

Riff3 - guitar part (listen to the rhythm)
e|--------------------------------------------------------------------------|
B|--------------------------------------------------------------------------|
G|--7"--7"--7"--5"-----5"---------------------------------------------------|
D|--0"--0"--0"--0"--5"-0"---------------------------------------------------|
A|------------------0"------------------------------------------------------|
E|--------------------------------------------------------------------------|

Riff3 - violin part 1
e|--------------------------------------------------------------------------|
B|--------------q10---------------------------------------------------------|
G|--7--9-10-9-7-----9-10-9-7q7-9-10-9-7-------------------------------------|
D|--0------------------------------------10-7-q10---------------------------|
A|--------------------------------------------------------------------------|
E|--------------------------------------------------------------------------|

Riff3 - violin part 2
e|--------------------------------------------------------------------------|
B|-----------q10------------------------------------------------------------|
G|--7--7--7-------10-9h10p9--7--10-9h10p9-----------------------------------|
D|--0--------------------------------------10--7--10------------------------|
A|--------------------------------------------------------------------------|
E|--------------------------------------------------------------------------|

Riff4
e|--------------------------------------------------------------------------|
B|--------------------------------------------------------------------------|
G|--7"--10"--9"--2"----0"--0"--2--2-----------------------------------------|
D|--0"--0"---0"--0"----2"--3"--0--0-----------------------------------------|
A|--------------------------------------------------------------------------|
E|--------------------------------------------------------------------------|

Riff5
e|--------------------------------------------------------------------------|
B|--------------------------------------------------------------------------|
G|--0"--0"--0"--2"----0"--0"--0"--.--2--------------------------------------|
D|--2"--3"--2"--0"----2"--3"--2"--0--0--------------------------------------|
A|--------------------------------------------------------------------------|
E|--------------------------------------------------------------------------|

Riff6           - 1. 2. 3.           - 4.
e|--------------|--------------------|--------------------------------------|
B|---------10"--|--9"--10"--9"--10"--|--------------------------------------|
G|------7"--7"--|--7"--7"---7"--7"---|--------------------------------------|
D|--7"--0"------|--------------------|--------------------------------------|
A|--0"----------|--------------------|--8--7--5--4--5-----------------------|
E|--------------|--------------------|--------------------------------------|

Riff7* (acoustic) - start like this...
e|-----0-0-0-0-0-0-----------------------------------------------------------|
B|-----0-0-0-0-0-0-----------------------------------------------------------|
G|--7--7-7-7-7-7-7-----------------------------------------------------------|
D|--0--0-0-0-0-0-0-----------------------------------------------------------|
A|---------------------------------------------------------------------------|
E|---------------------------------------------------------------------------|

...then play
----------------------------------------------------------------------------|
--6-6--9-9--10-10-9----6-6-6--9-9--10-10-9----2--2-2-2--2-5-5--5-5-5-5------|
--7-7--7-7--7--7--7----7-7-7--7-7--7--7--7----3--3-3-3--3-2-2--2-2-2-2------|
--0-0--0-0--0--0--0----0-0-0--0-0--0--0--0----0--0-0-0--0-0-0--0-0-0-0------|
----------------------------------------------------------------------------|
----------------------------------------------------------------------------|

Bridge
e|----------------------------------|
B|----------------------------------|
G|----------------------------------|
D|--7--.-.-.-.-.-.-.-.-.-.-.-.-.-.--|
A|--0--0-0-0-0-0-0-0-0-0-0-0-0-0-0--|
E|----------------------------------|

Riff8 (not too sure about that one)
e|--------------------------------------------------------------------------|
B|----10---9----------------------------------------------------------------|
G|--7-7--7-7-9h10p9-7h9p7--7------------------------------------------------|
D|--0----0--------------------10--------------------------------------------|
A|--------------------------------------------------------------------------|
E|--------------------------------------------------------------------------|

End
e|------|
B|------|
G|--7"--|
D|--0"--|
A|------|
E|------|



Structure:

Intro  - 1x
Riff 1 - 4x
Riff 2 - 4x
Riff 3 - 4x (guitar)
Riff 3 - 4x (violin part1)
Riff 3 - 4x (violin part2)
Riff 3 - 4x (violin part1)
Riff 3 - 4x (violin part2)
Riff 4 - 4x
Riff 5 - 4x
Riff 4 - 4x
Riff 5 - 4x
Intro  - 1x
Riff 1 - 4x
Riff 2 - 4x
Riff 6 - 4x
Riff 3 - 4x (guitar)
Riff 3 - 4x (violin part1)
Riff 3 - 4x (violin part2)
Riff 3 - 4x (violin part1)
Riff 3 - 4x (violin part2)
Riff 4 - 4x
Riff 5 - 4x
Riff 4 - 4x
Riff 5 - 4x
Riff 7 - 4x
Bridge - 1x
Riff 7 - 4x (distorted)
Riff 8 - 8x
End...

* thats about what is played...chords are open and the strumming
  pattern varies a bit
Добавлено: 09.10.2013
Другие материалы по этой песне:
  • Аккорды и текст

Страница создана 09.10.2013
http://primanota.ru/helheim/av-norroen-aett-chords.htm
Привет, Гость.
Предлагаем пройти революционный курс по гитаре.
Подарок от PrimaNota.Ru, забирай!