PrimaNota.ru - самый крупный в мире бесплатный архив песенных текстов, аккордов, табулатур и нот


Helena Kletch - Baby - аккорды и текст, видео

Регистрация Запомнить меня
Войти через:  Facebook Google Twitter Vk Yandex Mail.ru

Helena Kletch - Baby - аккорды и текст, видео

Печатать
Просмотров: 71
Уроки эстрадного вокала в Санкт-Петербурге
Baby
Helena Kletch
-------------------------------------------------------------------------------
                             BABY by HELENA KLETCH
-------------------------------------------------------------------------------

I love this song, and as I couldn't find any Tab or Chords to it, I decided to do one myself. The lyrics aren't
all correct, but I tried my best.

Capo on 5th


These are the only two tabs used in the entire song, use them throughout the song, depending on the chords.


       C                Em    G    D
e|-----0-----0---0---0---0----3----2-------------------------------------------|
B|-----1-----1---1---1---0----0----3-------------------------------------------|
G|-----0-----0---0---0---0----0----2----4--2--0--------------------------------|
D|-----0h2---2---0---0---2----0----0-------------------------------------------|
A|-----3-----3---3---0---2----2----0-------------------------------------------|
E|-----------------------0----3----0-------------------------------------------|



       C                Em    G    
e|-----0-----0---0---0---0----3----3----3--------------------------------------|
B|-----1-----1---1---1---0----0----0----0--------------------------------------|
G|-----0-----0---0---0---0----0----0----0---4--2--0----------------------------|
D|-----0h2---2---0---0---2----0----0----0--------------------------------------|
A|-----3-----3---3---0---2----2----0----2--------------------------------------|
E|-----------------------0----3----2----0--------------------------------------|

Intro: C  Em  G  D (x2)

                  C
Verse 1:  Now I'm tripping
                   Em
          and I am falling
                 G          
          and I feel brand new

                        C
Verse 2:  And I've been thinking
                   Em
          that I'm sinking
          G               
          back into you

C  Em  G  D


        C            Em
Chorus:   Is it enough to love?
         G     D
          Ba-aby
                 4   2   0   C
          'casue I'm tuckered of/out
                  Em          
          falling about you
         G     D
          Ba-aby

                    C
Verse 3:  And I can feel the way
                    Em
          You don't hold me
              G
          I'm falling away
    
                  C
Verse 4:  If love begins
                   Em
          and love ends
                    G
          just like anything else
                                            
          then what are we still fighting for?

        C            Em
Chorus:   Is it enough to love?
         G     D
          Ba-aby
                 4   2   0   C
          'casue I'm tuckered of/out
                  Em          
          falling about you
         G     D
          Ba-aby
         C     Em     G     D
                      Ba-aby
         C     Em     G     D
                      Ba-aby

         4 - 2 - 0 -  G - D - C - Em

        G                         D
Outro:    With that little pruned(?) smile
        C                       Em
          The way you move your hips I
        G                     D
          I feel wild, I feel free
        C                            Em
          when you're dancing next to me I

        G                         D   
          With that little pruned(?) smile
        C                       Em
          The way you move your hips I
        G                     D
          I feel wild, I feel free
        C                             G
          when you're dancing next to me 



************************************

| /   slide up
| \   slide down
| h   hammer-on
| p   pull-off
| ~   vibrato
| +   harmonic
| x   Mute note
| b   Bend
| pb  Pre-bend
| br  Bend release
| pbr Pre-bend release
| brb Bend release bend

************************************
Добавлено: 02.09.2015
Другие материалы по этой песне:
  • Аккорды и текст

Страница создана 02.09.2015
http://primanota.ru/helena-kletch/baby-chords.htm
Привет, Гость.
Предлагаем пройти революционный курс по гитаре.
Подарок от PrimaNota.Ru, забирай!