PrimaNota.ru - самый крупный в мире бесплатный архив песенных текстов, аккордов, табулатур и нот


Hel - Valkyriors Dom - таба, видео

Регистрация Запомнить меня
Войти через:  Facebook Google Twitter Vk Yandex Mail.ru

Hel - Valkyriors Dom - таба, видео

Печатать
Просмотров: 180
HEL - VALKYRIORS DOM

Tabbad av Stefan Nilsson (2004-08-27)
Email: stefan.ne.nilsson@gmail.com

    D5          C5             D5          C5
e|----------------------------------------------------|
A|----------------------------------------------------|
D|----7---7--------7----7--------7---7--------7----7--|
G|--7---7---7---10---10---10---7---7---7---10---10----|
B|----------------------------------------------------|
E|----------------------------------------------------|

    D5
e|-----------------|
A|-----------------|
D|-----------------|
G|--7---7h8p7p5h7--|
B|-----------------|
E|-----------------|


Vers:
D5 A#5 D5 A#5 (A5) (x2)
D5 A#5 F5 A5 (Med Fill_1)

Fill_1:
        D5    A#5     F5      A5
e|-------------------------------|
A|-------------------------------|
D|-------------------------------|
G|--8-7-----8-----8-7-----8-7----|
B|------5-------------8----------|
E|------------6---------------5--|

Refräng:
F5 C5 D5 A#5
F5 D5 A#5 A5

Mellanspel:
D5 A#5 D5 A#5 (Med Fill_2)

Fill_2:
e|--------------------------------|
A|--------------------------------|
D|--------------------------------|
G|--7---10-12---5-7---5-3-(Dive)--|
B|--------------------------------|
E|--------------------------------|

Vers:
D5 A#5 D5 A#5 (A5)
D5 A#5 F5 A5 (Med Fill_1)

Refräng:
F5 C5 D5 A#5
F5 D5 A#5 A5

Mellanspel:
D5 A#5 D5 A#5 (Med Fill_2)
D5 A#5 F5 A5 (Med Fill_3)

Fill_3:
e|--/13------10-12-13---12-12--10-10---------10h12h13--|
A|--------11--------------------------13-13------------|
D|-----------------------------------------------------|
G|-----------------------------------------------------|
B|-----------------------------------------------------|
E|-----------------------------------------------------|

e|--18---------17---------15----------------------------|
A|-----18---18----17---17----18---18---17---15---(15)*--|
D|------------------------------------------------------| x2
G|------------------------------------------------------| * Andra gången
B|------------------------------------------------------|
E|------------------------------------------------------|

Vers:
D5 A#5 D5 A#5 (A5)
D5 A#5 F5 A5 (Med Fill_1)

Refräng:
F5 C5 D5 A#5
F5 D5 A#5 A5

Refräng:
G5 D5 E5 C5
G5 E5 C5 B5

Outro:
E5 D5 E5 D5
E5 D5 E5 D5 E5\
Добавлено: 31.03.2012
Другие материалы по этой песне:
  • Аккорды и текст

Страница создана 31.03.2012
http://primanota.ru/hel/valkyriors-dom-chords.htm
Привет, Гость.
Предлагаем пройти революционный курс по гитаре.
Подарок от PrimaNota.Ru, забирай!