PrimaNota.ru - самый крупный в мире бесплатный архив песенных текстов, аккордов, табулатур и нот


Heinz Rudolf Kunze - Mit Meinem Leeren Glas - аккорды и текст, таба, видео

Регистрация Запомнить меня
Войти через:  Facebook Google Twitter Vk Yandex Mail.ru

Heinz Rudolf Kunze - Mit Meinem Leeren Glas - аккорды и текст, таба, видео

Печатать
Просмотров: 187
Mit Meinem Leeren Glas
Heinz Rudolf Kunze
interpret:  Heinz Rudolf Kunze
titel:      Mit meinem leeren Glas
album:      Reine Nervensache
 
 
  von:------Henrik Hertel-----> henland@nexgo.de
 
date: (29.03.2001)
 
verwendete Akkorde:
CaddG:    -x 3 2 0 1 3-
?:        -x 2 2 0 1 3-
Am6:      -x 0 2 2 1 2-
F:        -1 3 3 2 1 1-
Emadd9:   -0 2 2 0 0 2-
C:        -x 3 2 0 1 0-
G:        -3 2 0 0 0 3-  oder -3 5 5 4 3 3-
Am:       -x 0 2 2 1 0-
 
 
 
Intro:
    CaddG        
e/--------3---3--------3---3--------3---3----------3---3--
B/----1-----1------1-----1------1-----1--------1-----1----
G/------0------------0------------0--------------0--------
D/---------------2-------------------------0h2------------
A/--3-------------------------3---------------------------
E/--------------------------------------------------------
Zeichenerklärung:  "--0h2--" bedeutet die Leersaite anschlagen und gleich 
                             auf den 2. Bund mit dem Finger "raufhämmern" 
                                      
 
1. Strophe:
 
Tabulatur:
 
    CaddG        ?            Am6         F
e/--------3---3--------3---3--------2---2--------1---1--
B/----1-----1------1-----1------1-----1------1-----1----
G/------0------------0------------2------------2--------
D/------------------------------------------------------
A/--3------------2------------0-------------------------
E/----------------------------------------1-------------
 
 
    CaddG        ?            Am6         F
e/--------3---3--------3---3--------2---2--------1---1--
B/----1-----1------1-----1------1-----1------1-----1----
G/------0------------0------------2------------2--------
D/------------------------------------------------------
A/--3------------2------------0-------------------------
E/----------------------------------------1-------------
 
 
    CaddG        Emadd9       F              F                        
e/--------3---3--------2---2--------1---1----------1---
B/----1-----1------0-----0------1-----1--------1-------
G/------0------------0------------2--------------2-----
D/-------------------------------------------3---------
A/--3------------2-------------------------------------
E/----------------------------1------------------------
 
 
 
Akkorde:
 
CaddG          ?  
 Ich hoffe Ihr fühlt euch wohl
 
      Am6 (oder Am)                F                        CaddG        
ein Wäschekorb Kartoffelchips und fünfundzwanzig Flaschen Wein
 
                      ?            
vor'm Klo hängt ein Einsatzplan
 
    Am6 (oder Am)                 
ich fühl mich nicht, ich lasse Euch
 
     F                             CaddG
von Zeit zu Zeit mit Eurem Glück allein  Bei mir
 
        Emadd9           F    CaddG  G  F                              
wird's ohne mich erst schön
 
 
 
Refrain:
 
                                 CaddG G F  G       C            G 
vergib mir Karin es war nur Spaß               aber wo soll ich hin
 
             Am    F   C            G                    Am
mit meinem leeren Glas wo soll ich hin mit meinem leeren Glas
 
 
C  G  Am  F  C  G  Am
 
 
 
Verse 2:
Ich möchte Dir helfen Freund
sie ist Dich gar nicht wert Du machst Dich umsonst kaputt
Du hast zu schön gelebt
Dich nicht mit Fleiß auf Pfründe programmiert
nur das will sie entführe sie kassiere und vergiß sie irgendwo
 
 
Refrain:
vergib mir Karin es war nur Spaß
aber wo soll ich hin mit meinem leeren Glas 
wo soll ich hin mit meinem leeren Glas
 
 
Verse 3:
Ich möchte daß einer kommt
den ich schon lang nicht mehr gesehen hab
ich fiele ihm um den Hals
wir streunten in die Stadt Ich
hätt' nicht sehr viel an und holte mir
im Winterwind den Tod
 
 
Refrain:
vergib mir Karin es war nur Spaß
aber wo soll ich hin mit meinem leeren Glas
wo soll ich hin mit meinem leeren Glas
 
 
Verse 4:
Ich möchte daß Ihr jetzt geht
ich hab nichts gegen Euch Ihr habt mir nichts getan
es ist ganz meine Schuld ich ruiniere diesen Abend Seht mich bitte
nicht so an Ihr habt kein Recht dazu Ihr nicht
 
Refrain:
vergib mir Karin es war nur Spaß
aber wo soll ich hin mit meinem leeren Glas
wo soll ich hin mit meinem leeren Glas
vergib mir Karin es war nur
Glas
 
 
 
Diese Version ist bestimmt nicht ganz 100%tig richtig, 
(auch weil meine Aufnahme von dem Lied nicht die beste ist), 
deshalb schickt mir ne Mail, falls ihr den einen oder anderen Fehler findet!
(Die Grundakkorde sind auf jeden Fall richtig (besser gesagt: "Korrekt")!)
 
 
Für andere Tabs schaut nach unter: 
http://home.nexgo.de/henland/GuitarMeadow.html
 
Bei Fragen, oder wenn ihr über HRK reden wollt oder 
andere gute Tabs von ihm habt, dann mailt mir doch einfach:
 
henland@nexgo.de
 
 
 
 
 
For other tabs look at
http://home.nexgo.de/henland/GuitarMeadow.html
 
 
Corrections, questions, comments or just talk 
about Heinz Rudolf Kunze, Echt or John Lennon or the Beatles or you got some good tabs of them
than E-mail me    
 
henland@nexgo.de
Добавлено: 13.04.2012
Другие материалы по этой песне:
  • Аккорды и текст

Страница создана 22.02.2012
http://primanota.ru/heinz-rudolf-kunze/mit-meinem-leeren-glas-chords.htm
Привет, Гость.
Предлагаем пройти революционный курс по гитаре.
Подарок от PrimaNota.Ru, забирай!