PrimaNota.ru - самый крупный в мире бесплатный архив песенных текстов, аккордов, табулатур и нот


Heinz Aus Wien - Bitte Sprich Mich Einfach An - таба, видео

Регистрация Запомнить меня
Войти через:  Facebook Google Twitter Vk Yandex Mail.ru

Heinz Aus Wien - Bitte Sprich Mich Einfach An - таба, видео

Печатать
Просмотров: 86
Intro Distortion
E|---------------------------------------------------------------------|
B|---------------------------------------------------------------------|
G|---------------------------------------------------------------------|
D|-6-7-2-2-2-2-2-2-2-2-4-4-4-4-4-4-4-4-2-2-2-2-2-2-2-2-4-4-4-4-4-4-4-4-|
A|-6-7-2-2-2-2-2-2-2-2-4-4-4-4-4-4-4-4-2-2-2-2-2-2-2-2-4-4-4-4-4-4-4-4-|
E|-4-5-0-0-0-0-0-0-0-0-2-2-2-2-2-2-2-2-0-0-0-0-0-0-0-0-2-2-2-2-2-2-2-2-|


Verse Distortion
E|-----------------------------------------------------------------|
B|-----------------------------------------------------------------|
G|-----------------------------------------------------------------|2 times
D|-2-2-2-2-2-2-2-2-4-4-4-4-4-4-4-4-2-2-2-2-2-2-2-2-4-4-4-4-4-4-4-4-|
A|-2-2-2-2-2-2-2-2-4-4-4-4-4-4-4-4-2-2-2-2-2-2-2-2-4-4-4-4-4-4-4-4-|
E|-0-0-0-0-0-0-0-0-2-2-2-2-2-2-2-2-0-0-0-0-0-0-0-0-2-2-2-2-2-2-2-2-|

E|-----------------------------------------------------------------|
B|-----------------------------------------------------------------|
G|-----------------------------------------------------------------|
D|-2-2-2-2-2-2-2-2-4-4-4-4-4-4-4-4-6-6-6-6-6-6-6-6-7-7-7-7-7-7-7-7-|
A|-2-2-2-2-2-2-2-2-4-4-4-4-4-4-4-4-6-6-6-6-6-6-6-6-7-7-7-7-7-7-7-7-|
E|-0-0-0-0-0-0-0-0-2-2-2-2-2-2-2-2-4-4-4-4-4-4-4-4-5-5-5-5-5-5-5-5—|

E|----------|
B|----------|
G|----------|
D|--7—-7—-7-|
A|--7—-7-—7-|
E|--5--5--5-|

Chorus distortion
E|-----------------------------------------------------------------|
B|-----------------------------------------------------------------|
G|-----------------4-4-4-4-4-4-4-4---------------------------------|
D|-2-2-2-2-2-2-2-2-4-4-4-4-4-4-4-4-6-6-6-6-6-6-6-6-7-7-7-7-7-7-7-7-|3 times
A|-2-2-2-2-2-2-2-2-2-2-2-2-2-2-2-2-6-6-6-6-6-6-6-6-7-7-7-7-7-7-7-7-|
E|-0-0-0-0-0-0-0-0-----------------4-4-4-4-4-4-4-4-5-5-5-5-5-5-5-5—|

E|-----------------------------------------------------------------|
B|-----------------------------------------------------------------|
G|-----------------4-4-4-4-4-4-4-4---------------------------------|
D|-2-2-2-2-2-2-2-2-4-4-4-4-4-4-4-4-7-7-7-7-7-7-7-7-7-7-7-7-7-7-7-7-|
A|-2-2-2-2-2-2-2-2-2-2-2-2-2-2-2-2-7-7-7-7-7-7-7-7-7-7-7-7-7-7-7-7-|
E|-0-0-0-0-0-0-0-0-----------------5-5-5-5-5-5-5-5-5-5-5-5-5-5-5-5—|

Second Verse distortion
E|-----------------------------------------------------------------|
B|-----------------------------------------------------------------|
G|-----------------------------------------------------------------|3 times
D|-2-2-2-2-2-2-2-2-4-4-4-4-4-4-4-4-2-2-2-2-2-2-2-2-4-4-4-4-4-4-4-4-|
A|-2-2-2-2-2-2-2-2-4-4-4-4-4-4-4-4-2-2-2-2-2-2-2-2-4-4-4-4-4-4-4-4-|
E|-0-0-0-0-0-0-0-0-2-2-2-2-2-2-2-2-0-0-0-0-0-0-0-0-2-2-2-2-2-2-2-2-|

E|-----------------------------------------------------------------|
B|-----------------------------------------------------------------|
G|-----------------------------------------------------------------|
D|-2-2-2-2-2-2-2-2-4-4-4-4-4-4-4-4-6-6-6-6-6-6-6-6-7-7-7-7-7-7-7-7-|
A|-2-2-2-2-2-2-2-2-4-4-4-4-4-4-4-4-6-6-6-6-6-6-6-6-7-7-7-7-7-7-7-7-|
E|-0-0-0-0-0-0-0-0-2-2-2-2-2-2-2-2-4-4-4-4-4-4-4-4-5-5-5-5-5-5-5-5—|

E|----------|
B|----------|
G|----------|
D|--7—-7—-7-|
A|--7—-7-—7-|
E|--5--5--5-|

Chorus Again

Interlude
E|-----------------------------------------------------------------|
B|-----------------------------------------------------------------|
G|-----------------------------------------------------------------|
D|-7-7-7-7-7-7-7-7-6-6-6-6-6-6-6-6-4-4-4-4-4-4-4-4-2-2-2-2-2-2-2-2-|
A|-7-7-7-7-7-7-7-7-6-6-6-6-6-6-6-6-4-4-4-4-4-4-4-4-2—2-2-2-2-2-2-2-|
E|-5-5-5-5-5-5-5-5—4-4-4-4-4-4-4-4-2-2-2-2-2-2-2-2-0-0-0-0-0-0-0-0-|

E|-----------------------------------------------------------------|
B|-----------------------------------------------------------------|
G|-----------------------------------------------------------------|
D|-7-7-7-7-7-7-7-7-6-6-6-6-6-6-6-6-4-4-4-4-4-4-4-4-4-4-4-4-4-4-6-6-|
A|-7-7-7-7-7-7-7-7-6-6-6-6-6-6-6-6-4-4-4-4-4-4-4-4-4-4-4-4-4-4-6-6-|
E|-5-5-5-5-5-5-5-5—4-4-4-4-4-4-4-4-2-2-2-2-2-2-2-2-2-2-2-2-2-2-4-4-|

E|-----------------------------------------------------------------|
B|-----------------------------------------------------------------|
G|-----------------------------------------------------------------|
D|-7-7-7-7-7-7-7-7-6-6-6-6-6-6-6-6-4-4-4-4-4-4-4-4-2-2-2-2-2-2-2-2-|
A|-7-7-7-7-7-7-7-7-6-6-6-6-6-6-6-6-4-4-4-4-4-4-4-4-2—2-2-2-2-2-2-2-|
E|-5-5-5-5-5-5-5-5—4-4-4-4-4-4-4-4-2-2-2-2-2-2-2-2-0-0-0-0-0-0-0-0-|

E|------------------------------------------|
B|------------------------------------------|
G|------------------------------------------|
D|-7-7-7-7-7-7-7-7-6-6-6-6-6-6-6-6-4----6-7-|
A|-7-7-7-7-7-7-7-7-6-6-6-6-6-6-6-6-4----6-7-|
E|-5-5-5-5-5-5-5-5—4-4-4-4-4-4-4-4-2----4-5-|

Chorus again

Outro

E|--------------|
B|--------------|
G|--------------|
D|-2----------2-|
A|-2-let ring-2-|
E|-0----------0-|

Добавлено: 29.03.2012
Другие материалы по этой песне:
  • Аккорды и текст

Страница создана 29.03.2012
http://primanota.ru/heinz-aus-wien/bitte-sprich-mich-einfach-an-chords.htm
Привет, Гость.
Предлагаем пройти революционный курс по гитаре.
Подарок от PrimaNota.Ru, забирай!