PrimaNota.ru - самый крупный в мире бесплатный архив песенных текстов, аккордов, табулатур и нот


Heidi Feek - Someday Somebody - аккорды и текст, видео

Регистрация Запомнить меня
Войти через:  Facebook Google Twitter Vk Yandex Mail.ru

Heidi Feek - Someday Somebody - аккорды и текст, видео

Печатать
Просмотров: 54
Someday Somebody
Heidi Feek
                           Dm          Bb               
    INTRO Riff (2x):   e---5------------------------]
                       B------8--6--5--6--5---------|
                       G---------------------7--5---|
                       D----------------------------|
                       A----------------------------|
                       E----------------------------|

Dm                                                   Bb
Someday somebody's gonna hurt you,  Somebody's gonna make you cry
                                 Dm                                       Bb
They're gonna tell you that they love you,  They're gonna look you in the eye
                      F                                          A
Then somebody's gonna leave you,  You'll know how painful it can be
                         Bb        C                             Dm
Someday somebody's gonna hurt you,    Just the way that you hurt me.



Dm                                                          Bb
Someday somebody's gonna show you,  Somebody's secret other side
                                 Dm                                    Bb
You're gonna think their love is so true,  But they've got things they hide
                            F                                         A
Cause then somebody's gonna leave you,  With the truth that's hard to see
                     Bb        C                             Dm
Oh, somebody's gonna hurt you,    Just the way that you hurt me.


                         Dm                                           Bb
On Bass Strings (2x):  e-----------------------------------------------------]
                       B-----------------------------------------------------|
                       G-----------------------------------------------------|
                       D----------------------7------------------------------|
                       A------5--(7-8)--7--5-----------5--(7-8)--7--5--------|
                       E---5------------------------5------------------6-----|

                       F                                         A
Yeah, somebody's gonna leave you,  With the truth that's hard to see
                     Bb        C                             Dm
Oh, somebody's gonna hurt you,    Just the way that you hurt me.
                       Bb        C                             Dm
Yeah, somebody's gonna hurt you,    Just the way that you hurt me.


OUTRO is Same as INTRO Riff: (4x)


Добавлено: 03.05.2016
Другие материалы по этой песне:
  • Аккорды и текст

Страница создана 03.05.2016
http://primanota.ru/heidi-feek/someday-somebody-chords.htm
Привет, Гость.
Предлагаем пройти революционный курс по гитаре.
Подарок от PrimaNota.Ru, забирай!