PrimaNota.ru - самый крупный в мире бесплатный архив песенных текстов, аккордов, табулатур и нот


Heidevolk - Vulgaris Magistralis - таба, видео

Регистрация Запомнить меня
Войти через:  Facebook Google Twitter Vk Yandex Mail.ru

Heidevolk - Vulgaris Magistralis - таба, видео

Печатать
Просмотров: 472
Vulgaris Magistralis 

Heidevolk cover version
Originally by Normaal

Copyright for this song belongs to its original authors.
Transcribed by Joe Pugh.

Key:
* = Palm mute
/ = Slide up


Intro #1       Intro #2/Bridge
e|--------|     |-------------------|
B|--------|     |-------------------|
G|--------|     |-------------------|
D|--5--7--|     |-------------------|
A|--3--5--|     |-------------------|
E|--------| x1  |--0-000-000-000-3--| x4
                   * *** *** *** *

Verse

 |-----------------------------------------------------------|
 |-----------------------------------------------------------| 
 |-----------------------------------------------------------|
 |--------------------5--7-----------------------------------|
 |--------------------3--5-----------------------------------|
 |--0-000-000-000-00--------0-000-000-000-3-0-000-000-000-3--| x2
    * *** *** *** **        * *** *** *** * * *** *** *** * 

 |------------------------------------------------|
 |------------------------------------------------|
 |------------------------------------------------|
 |----------5/7-----------------------------------|
 |--2--4/5--3/5-----------------------------------|
 |--0--2/3-------0-000-000-000-3-0-000-000-000-3--|
                 * *** *** *** * * *** *** *** *

 |-----------------------------------------------------------|
 |-----------------------------------------------------------| 
 |-----------------------------------------------------------|
 |--------------------5--7-----------------------------------|
 |--------------------3--5-----------------------------------|
 |--0-000-000-000-00--------0-000-000-000-3-0-000-000-000-3--|
    * *** *** *** **        * *** *** *** * * *** *** *** *

Pre-chorus #1  Pre-chorus #2       Pre-chorus #3     

 |--------|     |---------------|   |------------------|
 |--------|     |---------------|   |------------------|
 |--------|     |---------------|   |------------------|
 |--------|     |---------------|   |--------5--5-5-5--|
 |--5--7--|     |--5--7--7-7-7--|   |--5--7--3--3-3-3--|
 |--3--5--|     |--3--5--5-5-5--|   |--3--5------------|

Chorus

 |------------------------------------------------------------|
 |------------------------------------------------------------|
 |------------------------------------------------------------|
 |------------5--7--------------------5----7------------------|
 |------------3--5--------------------3----5------------------|
 |--0-000-00--------0-000-000-000-00----------0--000-000-000--|
    * *** **        * *** *** *** **          *  *** *** ***

Order:
 Intro #1 
 Intro #2
 
 Verse
 Pre-chorus #1
 Chorus
 Bridge
 
 Verse
 Pre-chorus #2
 Chorus 
 Bridge 

 Verse
 Pre-chorus #3
 Chorus x2
 Bridge x2

There is a short solo bit at the end which I may get round to 
tabbing later. 
Добавлено: 29.07.2012
Другие материалы по этой песне:

Страница создана 29.07.2012
http://primanota.ru/heidevolk/vulgaris-magistralis-chords.htm
Привет, Гость.
Предлагаем пройти революционный курс по гитаре.
Подарок от PrimaNota.Ru, забирай!