PrimaNota.ru - самый крупный в мире бесплатный архив песенных текстов, аккордов, табулатур и нот


Heidevolk - Het Geldersch Volklied - аккорды и текст, видео

Регистрация Запомнить меня
Войти через:  Facebook Google Twitter Vk Yandex Mail.ru

Heidevolk - Het Geldersch Volklied - аккорды и текст, видео

Печатать
Просмотров: 188
Het Geldersch Volklied
Heidevolk
-------------------------------------------------------------------------------
                  Het Geldersch Volkslied - Heidevolk
-------------------------------------------------------------------------------
Tabbed by: Nick D
Email: nick_thehunter@hotmail.com

Tuning: Standard (E,A,D,G,B,E)

~~DISCLAIMER: I DON'T OWN THIS SONG OR HEIDEVOLK. THIS IS ONLY TABBED FOR OTHER PEOPLE 
THEY CAN ENJOY PLAYING THIS GREAT SONG TOO!!~~

If you play powerchords (like Heidevolk does) you can play it like this.

Official website of the band: http://www.heidevolk.com/www/


e|-----------------------------------------------------------------------------|
B|-----------------------------------------------------------------------------|
G|---7----5------7-----X-----5-----X----X-----7----1---X----X------------------|
D|---7----5------7-----3-----5-----3----5-----7----1---3----5------------------|
A|---5----3------5-----3-----3-----3----5-----5----3---3----5------------------|
E|---5----3------5-----1-----3-----1----3-----5----3---1----3------------------|

Or:  D C D F C F G    
the whole song

************************************

| /   slide up
| \   slide down
| h   hammer-on
| p   pull-off
| ~   vibrato
| +   harmonic
| x   Mute note
| b   Bend
| pb  Pre-bend
| br  Bend release
| pbr Pre-bend release
| brb Bend release bend

************************************
Добавлено: 16.04.2012
Другие материалы по этой песне:
  • Аккорды и текст

Страница создана 16.04.2012
http://primanota.ru/heidevolk/het-geldersch-volklied-chords.htm
Привет, Гость.
Предлагаем пройти революционный курс по гитаре.
Подарок от PrimaNota.Ru, забирай!