PrimaNota.ru - самый крупный в мире бесплатный архив песенных текстов, аккордов, табулатур и нот


Heideroosjes - Our Own Vietnam - текст песни, таба, бас-таба, видео

Регистрация Запомнить меня
Войти через:  Facebook Google Twitter Vk Yandex Mail.ru

Heideroosjes - Our Own Vietnam - текст песни, таба, бас-таба, видео

Печатать
Просмотров: 144
HEIDEROOSJES
OUR OWN VIETNAM

Fig. 1
E|-------------------------------------|
B|-------------------------------------|
G|-5-----------------------------------|
D|-5-5-3--3-3-3-3-3--5-3-2--2-2-2-2-2--| 
A|-3-5-3--3-3-3-3-3--5-3-2--2—2-2-2-2--|
E|---3-1--1-1-1-1-1--3-1-0--0-0-0-0-0--|

Fig. 2
E|------------------|
B|------------------|
G|------------------|
D|-0---0---0-----3--|
A|---3---3---3-2----|
E|------------------|

Fig. 3
E|----------------------------------------------|
B|----------------------------------------------|
G|-3-x-x-x-x-x-x—5-x-x-x-x-x-x------------------|
D|-3-x-x-x-x-x-x-5-x-x-x-x-x-x----0---0---0---0-|
A|-1-x-x-x-x-x-x-3-x-x-x-x-x-x--3---3---3---3---|
E|----------------------------------------------|

Fig. 4
E|--------|
B|--------|
G|-5------|
D|-5-5-3--|
A|-3-5-3--|
E|---3-1--|

Fig. 5
E|----|
B|----|
G|----|
D|-3--|
A|-3--|
E|-1--|

Fig. 1 - 2x
Fig. 2 - 4x
Fig. 1 - 2x
Fig. 2 - 2x
Fig. 1 - 2x
Fig. 3 - 4x
Fig. 1 - 2x
Fig. 2 - 1x
Fig. 1 - 2x
Fig. 4 - 4x
Fig. 5 - 1x
Добавлено: 09.05.2012
Другие материалы по этой песне:
  • Аккорды и текст

Страница создана 09.05.2012
http://primanota.ru/heideroosjes/our-own-vietnam-chords.htm
Привет, Гость.
Предлагаем пройти революционный курс по гитаре.
Подарок от PrimaNota.Ru, забирай!