PrimaNota.ru - самый крупный в мире бесплатный архив песенных текстов, аккордов, табулатур и нот


Heffron Drive - Happy Mistakes - таба, видео

Регистрация Запомнить меня
Войти через:  Facebook Google Twitter Vk Yandex Mail.ru

Heffron Drive - Happy Mistakes - таба, видео

Печатать
Просмотров: 86
-------------------------------------------------------------------------------
                             Happy Mistakes - Heffron Drive
-------------------------------------------------------------------------------
Tabbed by: Juan Euler
E-mail: juaneuler@hotmail.com

Tuning: Standard

e|---------------------------------------------------------------------------|
B|---------------------------------------------------------------------------|
G|---------2--------2--------2--------2--------------------------------------|
D|---4-4-4----4-4-4----4-4-4----4-4-4----------------------------------------|
A|---------------------------------------------------------------------------|
E|---------------------------------------------------------------------------|

e|---------------------------------------------------------------------------|
B|---------------------------------------------------------------------------|
G|---------7--------7--------7--------7----7-9-7-----------------------------|
D|---9-9-9----9-9-9----9-9-9----9-9-9----------------------------------------|
A|---------------------------------------------------------------------------|
E|---------------------------------------------------------------------------|
Добавлено: 25.12.2015
Другие материалы по этой песне:
  • Аккорды и текст

Страница создана 07.12.2015
http://primanota.ru/heffron-drive/happy-mistakes-chords.htm
Привет, Гость.
Предлагаем пройти революционный курс по гитаре.
Подарок от PrimaNota.Ru, забирай!