PrimaNota.ru - самый крупный в мире бесплатный архив песенных текстов, аккордов, табулатур и нот


Heffron Drive - Could You Be Home - таба, видео

Регистрация Запомнить меня
Войти через:  Facebook Google Twitter Vk Yandex Mail.ru

Heffron Drive - Could You Be Home - таба, видео

Печатать
Просмотров: 95
Уроки эстрадного вокала в Санкт-Петербурге
   Am                                  F                          C

e --------------------------------------------------------------------------------------------------
b --0-------------------------------------3--------------------------3----------------------------
g -----2-------------------------------------3---------------------------2------------------------
d --------2------2------2-------2---------------2-------2-------------------0-------0------0------
a -----------1------1-------1---------------------- 1-------1-------------------1------1-------3--0-
e --------------------------------------------------------------------------------------------------

   E

e ----------------------------------------------------
b ------2---------------------------------------------
g ---------2------------------------------------------
d ------------1-------1-------------------------------
a ----------------0------0----------------------------
e ----------------------------------------------------

Добавлено: 01.05.2016
Другие материалы по этой песне:
  • Аккорды и текст

Страница создана 01.05.2016
http://primanota.ru/heffron-drive/could-you-be-home-chords.htm
Привет, Гость.
Предлагаем пройти революционный курс по гитаре.
Подарок от PrimaNota.Ru, забирай!