PrimaNota.ru - самый крупный в мире бесплатный архив песенных текстов, аккордов, табулатур и нот


Hedwig - Wicked Little Town - аккорды и текст, видео

Регистрация Запомнить меня
Войти через:  Facebook Google Twitter Vk Yandex Mail.ru

Hedwig - Wicked Little Town - аккорды и текст, видео

Печатать
Просмотров: 37
Wicked Little Town
Hedwig
Intro:
e|----------7----------------7-------------------3------------3-2-0-------------|
B|------5--------5--------5---5---5---5------5-------5---5----3-----3-----------|
G|----7---7----7---7----6---6---6---6------5---5---5---5------2-----------------|
D|------------------------------------------------------------0-----------------|
A|------------------------------------------------------------------------------|
E|------------------------------------------------------------------------------|

e|----------7----------------7-------------------3------------------3---5-3-6---|
B|------5--------5--------5---5---5---5------5-------5---5------4---------------|
G|----7---7----7---7----6---6---6---6------5---5---5---5------5---5---5---------|
D|------------------------------------------------------------------------------|
A|------------------------------------------------------------------------------|
E|------------------------------------------------------------------------------|


Em7/D         C#mb5/D           C/D 
You know, the sun is in your eyes
Em7/D                   C#m7b5/D         
And hurricanes and rains 
          C/D              D
and black and cloudy skies.

G7                                 C
You're running up and down that hill.
                            Cm
You turn it on and off at will.
                              
There's nothing here to thrill
    G
or bring you down.
G7                          C
And if you've got no other choice
                                Cm
You know you can follow my voice
                                
through the dark turns and noise
       G
of this wicked little town.

Em7/D         C#mb5/D           C/D 
Oh Lady, luck has led you here
Em7/D              C#mb5/D       
and they're so twisted up
              C/D            D
they'll twist you up. I fear.

G7                          C
the pious, hateful and devout,
                                           Cm
you're turning tricks til you're turned out,
                         
the wind so cold it burns,
        G
you're burning out and blowing round.
G7                          C
And if you've got no other choice
                            Cm
you know you can follow my voice
         
through the dark turns and noise
       G
of this wicked little town.

A     C
Ah    Ah

e|--------7--------------7--------------3-------------3-2-0---3---5---6---------|
B|-----5----5-5-------5----5-5-------5----5-5-----5-------------5---5-----------|
G|----7-7----7-------6-6----6-------5-5----5-----5-5----------------------------|
D|------------------------------------------------------------------------------|
A|------------------------------------------------------------------------------|
E|------------------------------------------------------------------------------|

Em7/D         C#mb5/D           C/D 
The fates are vicious and they're cruel.
Em7/D         C#mb5/D           C/D 
You learn too late you've used two wishes
           D
like a fool

G7                          C
and then you're someone you are not,
                             Cm 
and Junction City ain't the spot,

remember Mrs. Lot
   G
and when she turned around.
G7                          C
And if you've got no other choice
                           Cm
You know you can follow my voice

through the dark turns and noise
       G
of this wicked little town.



e|--0------------------------------------------------3--------------------------|
B|-----3--1--0--1------------------------------0--3-----------------------------|
G|-----------------0----------------0----0--2-----------------------------------|
D|----------------------2-0-2---0h2---------------------------------------------|
A|------------------------------------------------------------------------------|
E|------------------------------------------------------------------------------|


You can play this tab during the verse(Em7/D C#mb5/D C/D)if you prefer it over playing the chords
e|----------7----------------7-------------------3------------3-2-0-------------|
B|------5--------5--------5---5---5---5------5-------5---5----3-----3-----------|
G|----7---7----7---7----6---6---6---6------5---5---5---5------2-----------------|
D|------------------------------------------------------------0-----------------|
A|------------------------------------------------------------------------------|
E|------------------------------------------------------------------------------|

e|----------7----------------7-------------------3------------2--2----3----5----|
B|------5--------5--------5---5---5---5------5-------5---5----3--3----3----3----|
G|----7---7----7---7----6---6---6---6------5---5---5---5------2--2----2----2----|
D|------------------------------------------------------------0--0----0---------|
A|------------------------------------------------------------------------------|
E|------------------------------------------------------------------------------|

Добавлено: 11.04.2016
Другие материалы по этой песне:
  • Аккорды и текст

Страница создана 11.04.2016
http://primanota.ru/hedwig/wicked-little-town-chords.htm
Привет, Гость.
Предлагаем пройти революционный курс по гитаре.
Подарок от PrimaNota.Ru, забирай!