PrimaNota.ru - самый крупный в мире бесплатный архив песенных текстов, аккордов, табулатур и нот


Hedley - The Sweater Song - текст песни, таба, видео

Регистрация Запомнить меня
Войти через:  Facebook Google Twitter Vk Yandex Mail.ru

Hedley - The Sweater Song - текст песни, таба, видео

Печатать
Просмотров: 260
Guitar 1 (Acoustic)- D G# C# G A# D# (ie. Drop D tuning, turn the rest down half step, 
for the 6th and 3rd string).
Guitar 2 (Electric)- Standard Tuning EADGBE
Guitar 3 (Electric)- Standard Tuning EADGBE

Everything is Guitar 1 unless specified otherwise.

Intro
Guitar 1
D#|-------------------------|     |---------------|
A#|-----0-----0-----0-----0-|     |-----0-----0---|
G |---0-----0-----0-----0---|(x3) |---0-----0-----|
C#|-------------------2-----|     |-------2-------|
G#|-------2-----0-----------|     |-0-------------|
D |-1-----------------------|     |-------------1-|

D#|-----------------------0-|     |---------------|
A#|-----0-----0-----0---0---|     |-----0-----0---|
G |---0-----0-----0---------|(x3) |---0-----0-----|
C#|-------------------2-----|     |-------2-------|
G#|-------2-----0-----------|     |-0-------------|
D |-1-----------------------|     |-------------1-|

Verse 1

( D#|-------------------------|     |---------------|-- )
( A#|-----0-----0-----0-----0-|     |-----0-----0---|-- )
( G |---0-----0-----0-----0---|(x3) |---0-----0-----|-- ) (x4)
( C#|-------------------2-----|     |-------2-------|-- )
( G#|-------2-----0-----------|     |-0-------------|-- )
( D |-1-----------------------|     |-------------1-|-- )

She said baby don't leave
Be home stay close be close to me
Boy don't be gone, boy
Don't be gone

He said baby you know
I gotta run, I gotta go
I won't be long, girl
I won't be long

She said boy don't you flirt
And baby please just don't get hurt
And if you feel alone then here
Take my shirt

He said forever girl
I know you hate the weather girl
So maybe you should hold onto
My sweater girl

Chorus 1

( D#|-----------------------0-|     |---------------|-- )
( A#|-----0-----0-----0---0---|     |-----0-----0---|-- )
( G |---0-----0-----0---------|(x3) |---0-----0-----|-- ) (x2)
( C#|-------------------2-----|     |-------2-------|-- )
( G#|-------2-----0-----------|     |-0-------------|-- )
( D |-1-----------------------|     |-------------1-|-- )

Nananaaa...

Nananaaa...

Verse 2

( D#|-------------------------|     |---------------|-- )
( A#|-----0-----0-----0-----0-|     |-----0-----0---|-- )
( G |---0-----0-----0-----0---|(x3) |---0-----0-----|-- ) (x4)
( C#|-------------------2-----|     |-------2-------|-- )
( G#|-------2-----0-----------|     |-0-------------|-- )
( D |-1-----------------------|     |-------------1-|-- )

She ran picked up the phone
Said babe I miss you come back home
It can't be long, boy
It can't be long

He said I hate this place
I miss your smile I miss your face
I wrote a song, girl
I wrote a song

She said you make me better boy
I just mailed you a letter boy
And oh just so you know I'm still in
Your sweater boy

He said girl don't be hurt
I've sweat a lot and smell of dirt
And I think I'd feel naked
Without your shirt

Chorus 2

( D#|-----------------------0-|     |---------------|-- )
( A#|-----0-----0-----0---0---|     |-----0-----0---|-- )
( G |---0-----0-----0---------|(x3) |---0-----0-----|-- ) (x2)
( C#|-------------------2-----|     |-------2-------|-- )
( G#|-------2-----0-----------|     |-0-------------|-- )
( D |-1-----------------------|     |-------------1-|-- )

Nananaaa...

Nananaaa...

Verse 3

( D#|-------------------------|    |-------------------------|---------------|-- )
( A#|-----0-----0-----0-----0-|    |-----0-----0-----0-----0-|-----0-----0---|-- )
( G |---0-----0-----0-----0---|(x2)|---0-----0-----0-----0---|---0-----0-----|-- ) (x1)
( C#|-------------2-----2-----|    |-------------------2-----|-------2-------|-- )
( G#|-0-----2-----------------|    |-------2-----0-----------|-0-------------|-- )
( D |-------------------------|    |-1-----------------------|-------------1-|-- )

He said you're looking great
I'm home I'm back I couldn't wait
Girl way too long, this was way too long

( D#|-------------------------|     |---------------|-- )
( A#|-----0-----0-----0-----0-|     |-----0-----0---|-- )
( G |---0-----0-----0-----0---|(x3) |---0-----0-----|-- ) (x1)
( C#|-------------------2-----|     |-------2-------|-- )
( G#|-------2-----0-----------|     |-0-------------|-- )
( D |-1-----------------------|     |-------------1-|-- )

She said get over here
I crave you close I need you near
Now play that song, boy
Play me our song

( D#|-----------------------0-|     |---------------|-- )
( A#|-----0-----0-----0---0---|     |-----0-----0---|-- )
( G |---0-----0-----0---------|(x3) |---0-----0-----|-- ) (x2)
( C#|-------------------2-----|     |-------2-------|-- )
( G#|-------2-----0-----------|     |-0-------------|-- )
( D |-1-----------------------|     |-------------1-|-- )

He said back to forever girl
Hope you endured the weather girl
Now all I wanna do is get you outta
That sweater girl

She said I like the way you flirt
I'm so glad you didn't get hurt
Now let me see you naked
Without that shirt

Chorus 3

Guitar 1 (strumming)

( D#|-0-0000-|     |-000000-|-- )
( A#|-0-0000-|     |-000000-|-- )
( G |-0-0000-|(x7) |-000000-|-- ) (x2)
( C#|-2-2222-|     |-222222-|-- )
( G#|-2-2222-|     |-222222-|-- )
( D |-1-1111-|     |-111111-|-- )

Guitar 2

E|-----------------------------------|
B|-----------------------------------|
G|-8-10-10h12-13-12-10---------------|(x2)
D|-8-10-13--------------13-10-10\8/13|
A|-6-8--10--------------13-10-10\8/13|
E|----------------------12-8--8-\6/12|

Solo

Guitar 1 (strumming)

( D#|-0-0000-|     |-000000-|-- )
( A#|-0-0000-|     |-000000-|-- ) (x1)
( G |-0-0000-|(x7) |-000000-|-- )
( C#|-2-2222-|     |-222222-|-- )
( G#|-2-2222-|     |-222222-|-- )
( D |-1-1111-|     |-111111-|-- )

( D#|-0-0000-|     |-0-|-- )
( A#|-0-0000-|     |-0-|-- ) (x1)
( G |-0-0000-|(x7) |-0-|-- )
( C#|-2-2222-|     |-2-|-- )
( G#|-2-2222-|     |-2-|-- )
( D |-1-1111-|     |-1-|-- )


Guitar 2

E|-----------------------------------|
B|-----------------------------------|
G|-8-10-10h12-13-12-10---------------|(x1)
D|-8-10-13--------------13-10-10\8/13|
A|-6-8--10--------------13-10-10\8/13|
E|----------------------12-8--8-\6/12|

E|-------------------------------------|
B|-------------------------------------|
G|-8-10-10h12-13-12-10-----------------|(x1)
D|-8-10-13--------------13-10-10\8-8/13|
A|-6-8--10--------------13-10-10\8-8/13|
E|----------------------12-8--8-\6-6/12|

Guitar 3

E|----------------------------------------------13-------15-15h16p15-|
B|------8h11p8---------8h13p8---------8h13p8-------16----------------|
G|-8h10--------10-8h10--------10-8h10--------10-------15-------------|
D|-------------------------------------------------------------------|
A|-------------------------------------------------------------------|
E|-------------------------------------------------------------------|
                            b    b
E|-11/13-13h15p13-11------------------------------|
B|-------------------11-9p8-11p8-11-11-9\8--------|
G|-------------------------------------------10\8-|
D|------------------------------------------------|
A|------------------------------------------------|
E|------------------------------------------------|

Outro

Guitar 1

( D#|-----------------------0-|     |---------------|-- )
( A#|-----0-----0-----0---0---|     |-----0-----0---|-- )
( G |---0-----0-----0---------|(x3) |---0-----0-----|-- ) (x2)
( C#|-------------------2-----|     |-------2-------|-- )
( G#|-------2-----0-----------|     |-0-------------|-- )
( D |-1-----------------------|     |-------------1-|-- )
Добавлено: 13.04.2012
Другие материалы по этой песне:
  • Аккорды и текст

Страница создана 03.04.2012
http://primanota.ru/hedley/the-sweater-song-chords.htm
Привет, Гость.
Предлагаем пройти революционный курс по гитаре.
Подарок от PrimaNota.Ru, забирай!