PrimaNota.ru - самый крупный в мире бесплатный архив песенных текстов, аккордов, табулатур и нот


Hedley - Sugar Free - текст песни, таба, видео

Регистрация Запомнить меня
Войти через:  Facebook Google Twitter Vk Yandex Mail.ru

Hedley - Sugar Free - текст песни, таба, видео

Печатать
Просмотров: 220
Hedley
Sugar Free
Tabbed By: Jeremy Waterman
Standard Tuning - EADGBE

This is a pretty easy song to play. Most of it's the exact same thing, plus like
afinity ammounts of switching to playing every string minus low E and random beat
changes.  As far as I know, this is at least 92.3+1/2% correct, (which is a lot of
correct) so I'm pretty happy with this tab.
Send me corrections and love letters at infectedwithyou@hotmail.com

Legend:
/ Slide Up
\ Slide Down
. Palm Mute
b Bend

Intro:
E[----------------------------------------------------------]
B[----------------------------------------------------------]
G[--6--6--6--6-\-2--2--2--2-/-9--9--9--9-\-4--4--4/6-6\4-/--]
D[--6--6--6--6-\-2--2--2--2-/-9--9--9--9-\-4--4--4/6-6\4-/--]
A[--4--4--4--4-\-0--0--0--0-/-7--7--7--7-\-2--2--2/4-4\2-/--]
E[----------------------------------------------------------]
 PM .  .  .  .   .  .  .  .   .  .  .  .   .  .  . . . .

E[-----------------------------------------------------------------]
B[-----------------------------------------------------------------]
G[--6--6--6--6-\-2--2--2--2-/-9--9--9--9--9-8--9-8--9-8--8-9--898--]
D[--6--6--6--6-\-2--2--2--2-/-9--9--9--9--9-8--9-8--9-8--8-9--898--]
A[--4--4--4--4-\-0--0--0--0-/-7--7--7--7--7-6--7-6--7-6--6-7--676--]
E[-----------------------------------------------------------------]
 PM .  .  .  .   .  .  .  .   .  .  .  .

E[-------------------------------------]
B[-------------------------------------]
G[-66666666\22222222/99999999\44444444-]
D[-66666666\22222222/99999999\44444444-]
A[-44444444\00000000/77777777\22222222-] (x2)
E[-------------------------------------]

Pre-Verse:
E[-------------------------------------]
B[-------------------------------------]
G[-66666666\22222222/99999999\44444444-]
D[-66666666\22222222/99999999\44444444-]
A[-44444444\00000000/77777777\22222222-] (x2)
E[-------------------------------------]
 PM........ ........ ........ ........

Verse:
E[-------------------------------]
B[-------------------------------]
G[-66--6---22--2---99--9---44--4-]
D[-66--6---22--2---99--9---44--4-]
A[-44--4---00--0---77--7---22--2-]
E[-------------------------------]
 PM .  .    .  .    .  .    .  .

E[-----------------------------------]
B[-----------------------------------]
G[-66--6---22--2---99--9---44--4-444-]
D[-66--6---22--2---99--9---44--4-444-]
A[-44--4---00--0---77--7---22--2-222-]
E[-----------------------------------]
 PM .  .    .  .    .  .    .  .

E[-------------------------------]
B[-------------------------------]
G[-66--6---22--2---99--9---44--4-]
D[-66--6---22--2---99--9---44--4-]
A[-44--4---00--0---77--7---22--2-] (x2)
E[-------------------------------]

E[----------------------------------------------------------]
B[----------------------------------------------------------]
G[--6--6--6--6-\-2--2--2--2-/-9--9--9--9-\-4--4--4/6-6\4-/--]
D[--6--6--6--6-\-2--2--2--2-/-9--9--9--9-\-4--4--4/6-6\4-/--]
A[--4--4--4--4-\-0--0--0--0-/-7--7--7--7-\-2--2--2/4-4\2-/--] (x2)
E[----------------------------------------------------------]
 PM .  .  .  .   .  .  .  .   .  .  .  .   .  .  . . . .

Post-Verse
E[-------------------------------------]
B[-------------------------------------]
G[-66666666\22222222/99999999\44444444-]
D[-66666666\22222222/99999999\44444444-]
A[-44444444\00000000/77777777\22222222-] (x2)
E[-------------------------------------]

Pre-Verse
E[--------------------------------------]
B[--------------------------------------]
G[-66666666\22222222/99999999\44444444--]
D[-66666666\22222222/99999999\44444444--]
A[-44444444\00000000/77777777\22222222--] (x2)
E[--------------------------------------]
 PM........ ........ ........ ........

Verse:
E[-------------------------------]
B[-------------------------------]
G[-66--6---22--2---99--9---44--4-]
D[-66--6---22--2---99--9---44--4-]
A[-44--4---00--0---77--7---22--2-] (x2)
E[-------------------------------]
 PM .  .    .  .    .  .    .  .

E[-------------------------------]
B[-------------------------------]
G[-66--6---22--2---99--9---44--4-]
D[-66--6---22--2---99--9---44--4-]
A[-44--4---00--0---77--7---22--2-] (x2)
E[-------------------------------]

E[-----------------------------------------------------------]
B[-----------------------------------------------------------]
G[--6--6--6--6-\-2--2--2--2-/-9--9--9--9-\-4--4--4/6-6\4-/---]
D[--6--6--6--6-\-2--2--2--2-/-9--9--9--9-\-4--4--4/6-6\4-/---]
A[--4--4--4--4-\-0--0--0--0-/-7--7--7--7-\-2--2--2/4-4\2-/---] (x2)
E[-----------------------------------------------------------]
 PM .  .  .  .   .  .  .  .   .  .  .  .   .  .  . . . .

Bridge:
E[------4------2-------7b7b----------]
B[-----------------------------------]
G[-666-----222-----999--------444----]
D[-666-----222-----999--------444----] (let ring)
A[-444-----000-----777--------222----] (x4)
E[-----------------------------------]
 PM  .       .       .          .

E[-44444444\22222222/77777777\22222222-]
B[-44444444\22222222/77777777\22222222-]
G[-66666666\22222222/99999999\44444444-]
D[-66666666\22222222/99999999\44444444-]
A[-44444444\00000000/77777777\22222222-] (x2)
E[-------------------------------------]

E[--------------------------------------------------------]
B[--------------------------------------------------------]
G[-6--6--6--6-\-2--2--2--2-/-9--9--9--9-\-4--4--4/6-6\4-/-]
D[-6--6--6--6-\-2--2--2--2-/-9--9--9--9-\-4--4--4/6-6\4-/-]
A[-4--4--4--4-\-0--0--0--0-/-7--7--7--7-\-2--2--2/4-4\2-/-] (x4)
E[--------------------------------------------------------]
 PM.  .  .  .   .  .  .  .   .  .  .  .   .  .  . . . .

E[-4--4--4--4-\-0--0--0--0-/-7--7--7--7-\-2--2--2/4-4\2-/-]
B[-4--4--4--4-\-0--0--0--0-/-7--7--7--7-\-2--2--2/4-4\2-/-]
G[-6--6--6--6-\-2--2--2--2-/-9--9--9--9-\-4--4--4/6-6\4-/-]
D[-6--6--6--6-\-2--2--2--2-/-9--9--9--9-\-4--4--4/6-6\4-/-]
A[-4--4--4--4-\-0--0--0--0-/-7--7--7--7-\-2--2--2/4-4\2-/-]
E[--------------------------------------------------------]
 PM.  .  .  .   .  .  .  .   .  .  .  .   .  .  . . . .

E[-4444\0000/7777\2222/4444\0000/7777\2222-]
B[-4444\0000/7777\2222/4444\0000/7777\2222-]
G[-6666\2222/9999\4444/6666\2222/9999\4444-]
D[-6666\2222/9999\4444/6666\2222/9999\4444-]
A[-4444\0000/7777\2222/4444\0000/7777\2222-]
E[-----------------------------------------]

E[-44444444\22222222/77777777\22222222-]
B[-44444444\22222222/77777777\22222222-]
G[-66666666\22222222/99999999\44444444-]
D[-66666666\22222222/99999999\44444444-]
A[-44444444\00000000/77777777\22222222-] (x3)
E[-------------------------------------]

E[-44444444\22222222/77777777\22222-]
B[-44444444\22222222/77777777\22222-]
G[-66666666\22222222/99999999\44444-]
D[-66666666\22222222/99999999\44444-] (mute last note)
A[-44444444\00000000/77777777\22222-]
E[----------------------------------]
Добавлено: 31.03.2012
Другие материалы по этой песне:

Страница создана 31.03.2012
http://primanota.ru/hedley/sugar-free-chords.htm
Привет, Гость.
Предлагаем пройти революционный курс по гитаре.
Подарок от PrimaNota.Ru, забирай!