PrimaNota.ru - самый крупный в мире бесплатный архив песенных текстов, аккордов, табулатур и нот


Hedley - Shes So Sorry - текст песни, таба, видео

Регистрация Запомнить меня
Войти через:  Facebook Google Twitter Vk Yandex Mail.ru

Hedley - Shes So Sorry - текст песни, таба, видео

Печатать
Просмотров: 175
This song is so freiking good,

Artist: Hedley
Song: She's So Sorry
Album: Famous Last Words
Tabbed by Dan

Guitar 1 is in Drop D Tuning.
Guitar 2 is in Standard Tuning.

Intro
Both Guitars(I put guitar 1's tuning on this first intro part so don't get confused, 
to the next intro part for guitar 2's part)
e|----------------------------------------------------|
B|----------------------------------------------------|
G|---------------------------8--8-6--8-9--8--8-6--8-9-|
D|-9--9-8--6-4--9--9-8--6-4--8--8-6--8-9--8--8-6--8-9-|
A|-9--9-8--6-4--9--9-8--6-4--6--6-4--6-7--6--6-4--6-7-|
D|-9--9-8--6-4--9--9-8--6-4---------------------------|

Guitar 1
e|------------------------------------------------------|
B|------------------------------------------------------|
G|---------------------------8--8-6--8-9--8--8-6--8-9---|
D|-9--9-8--6-4--9--9-8--6-4--8--8-6--8-9--8--8-6--8-9--6|
A|-9--9-8--6-4--9--9-8--6-4--6--6-4--6-7--6--6-4--6-7--6|
D|-9--9-8--6-4--9--9-8--6-4----------------------------6|
                                                       /\
Guitar 2                                            and \/have to match
e|--------------------------------------------------------|
B|-----9-----7------9-----7-------------------------------|
G|---------------------------8--8-6--8-9--8--8-6--11-11-13|
D|-9------------9------------8--8-6--8-9--8--8-6--11-11-13|
A|-9------------9------------6--6-4--6-7--6--6-4--9--9--11|
E|-7------------7-----------------------------------------|

Verse
Guitar 2
e|------------------------------------------------------------------------|
B|------------------------------------------------------------------------|
G|----x16----x16----x16----x16-------------------x16----x16----x16----x16-|
D|------------------------------------------------------------------------|
A|-6------5------4------2---------------------6------8------4------6------|
E|-4------3------2------0------4-6-7-9-7-6-4--4------6------6------4------|
PM............................                ............................

con.
e|---------------|
B|---------------|
G|---------------|
D|---------------|
A|---------------|
E|-4-6-7-9-7-6-4-|

Pre-Chorus
Guitar 1 (let ring all chords except last where its x16)
e|-4-----------------------------4-------------------------|
B|-5---------4---------7---------5---------4---------------|
G|-6-------------------6---------6---------------------x16-|
D|-6---------4---------4---------6---------4---------1-----|
A|-4---------2---------4---------4---------2---------1-----|
D|---------------------4-----------------------------1-----|

Guitar 2
e|---------------------------------------------------------|
B|---------------------------------------------------------|
G|-6---x16-------x8--------x8----6---x16-------x8----8-x16-|
D|-6---------9---------4---------6---------9---------8-----|
A|-4---------9---------4---------4---------9---------6-----|
E|-----------7---------2-------------------7---------------|

Chorus
Guitar 1(basic strumming, figure it out :P)
e|-----------------------------------------------------------------|
B|-----------------------------------------------------------------|
G|-----------------4-4-4-4-4-4-4-4-----------------6-6-6-6-6-6-6-6-|
D|-6-6-6-6-6-6-6-6-4-4-4-4-4-4-4-4-2-2-2-2-2-2-2-2-6-6-6-6-6-6-6-6-|
A|-6-6-6-6-6-6-6-6-2-2-2-2-2-2-2-2-2-2-2-2-2-2-2-2-4-4-4-4-4-4-4-4-|
D|-6-6-6-6-6-6-6-6-----------------2-2-2-2-2-2-2-2-----------------|
                                                                      x3
Guitar 2(basic strumming, figure it out :P)
e|-----------------------------------------------------------------|
B|-----------------------------------------------------------------|
G|-----------------4-4-4-4-4-4-4-4-9-9-9-9-9-9-9-9-6-6-6-6-6-6-6-6-|
D|-6-6-6-6-6-6-6-6-4-4-4-4-4-4-4-4-9-9-9-9-9-9-9-9-6-6-6-6-6-6-6-6-|
A|-6-6-6-6-6-6-6-6-2-2-2-2-2-2-2-2-7-7-7-7-7-7-7-7-4-4-4-4-4-4-4-4-|
E|-4-4-4-4-4-4-4-4-----------------0-0-0-0-0-0-0-0-----------------|

Chorus con.
Guitar 1
e|-------------------------------------------------------------------------|
B|-------------------------------------------------------------------------|
G|-------------------------------------------------------------------------|
D|-6-6-6-6-6-6-6-6-4-4-4-4-4-4-4-4-2-2-2-2-2-2-2-2-1-1--1-1--1-1--1-1--4-6-|
A|-6-6-6-6-6-6-6-6-4-4-4-4-4-4-4-4-2-2-2-2-2-2-2-2-1-1--1-1--1-1--1-1--4-6-|
D|-6-6-6-6-6-6-6-6-4-4-4-4-4-4-4-4-2-2-2-2-2-2-2-2-1-1--1-1--1-1--1-1--4-6-|

Guitar 2                                                        11 and 13\/
e|-------------------------------------------------------------------------|
B|-------------------------------------------------------------------------|
G|-------------------------------------------------8-8--8-8--8-8--8-8--1113|
D|-6-6-6-6-6-6-6-6-4-4-4-4-4-4-4-4-2-2-2-2-2-2-2-2-8-8--8-8--8-8--8-8--1113|
A|-6-6-6-6-6-6-6-6-4-4-4-4-4-4-4-4-2-2-2-2-2-2-2-2-6-6--6-6--6-6--6-6--9-11|
E|-4-4-4-4-4-4-4-4-2-2-2-2-2-2-2-2-0-0-0-0-0-0-0-0-------------------------|

Post-Chorus/Intro
Guitar 1
e|------------------------------------------------------|
B|------------------------------------------------------|
G|---------------------------8--8-6--8-9--8--8-6--8-9---|
D|-9--9-8--6-4--9--9-8--6-4--8--8-6--8-9--8--8-6--8-9--6|x2
A|-9--9-8--6-4--9--9-8--6-4--6--6-4--6-7--6--6-4--6-7--6|
D|-9--9-8--6-4--9--9-8--6-4----------------------------6|
                                                       /\
Guitar 2                                            and \/have to match
e|--------------------------------------------------------|
B|-----9-----7------9-----7-------------------------------|
G|---------------------------8--8-6--8-9--8--8-6--11-11-13|
D|-9------------9------------8--8-6--8-9--8--8-6--11-11-13|x2
A|-9------------9------------6--6-4--6-7--6--6-4--9--9--11|
E|-7------------7-----------------------------------------|

Verse
Guitar 2
e|------------------------------------------------------------------------|
B|------------------------------------------------------------------------|
G|----x16----x16----x16----x16-------------------x16----x16----x16----x16-|
D|------------------------------------------------------------------------|
A|-6------5------4------2---------------------6------8------4------6------|
E|-4------3------2------0------4-6-7-9-7-6-4--4------6------6------4------|
PM............................                ............................

Guitar 1
e|----------------------------------------------x4-----x4-----x4-----x4---|
B|-----------------------------------------------------2------2------0----|
G|----------------------------------------------3-----3-3----3-3----1-1---|
D|---------------------------------------------4-4---4------3------2------|
A|--------------------------------------------5---------------------------|
D|------------------------------------------------------------------------|

Guitar 2
con.
e|---------------|
B|---------------|
G|---------------|
D|---------------|
A|---------------|
E|-4-6-7-9-7-6-4-|

Pre-Chorus
Guitar 1 (let ring all chords except last where its x16)
e|-4-----------------------------4-------------------------|
B|-5---------4---------7---------5---------4---------------|
G|-6-------------------6---------6---------------------x16-|
D|-6---------4---------4---------6---------4---------1-----|
A|-4---------2---------4---------4---------2---------1-----|
D|---------------------4-----------------------------1-----|

Guitar 2
e|---------------------------------------------------------|
B|---------------------------------------------------------|
G|-6---x16-------x8--------x8----6---x16-------x8----8-x16-|
D|-6---------9---------4---------6---------9---------8-----|
A|-4---------9---------4---------4---------9---------6-----|
E|-----------7---------2-------------------7---------------|

Chorus
Guitar 1(basic strumming, figure it out :P)
e|-----------------------------------------------------------------|
B|-----------------------------------------------------------------|
G|-----------------4-4-4-4-4-4-4-4-----------------6-6-6-6-6-6-6-6-|
D|-6-6-6-6-6-6-6-6-4-4-4-4-4-4-4-4-2-2-2-2-2-2-2-2-6-6-6-6-6-6-6-6-|
A|-6-6-6-6-6-6-6-6-2-2-2-2-2-2-2-2-2-2-2-2-2-2-2-2-4-4-4-4-4-4-4-4-|
D|-6-6-6-6-6-6-6-6-----------------2-2-2-2-2-2-2-2-----------------|
                                                                      x3
Guitar 2(basic strumming, figure it out :P)
e|-----------------------------------------------------------------|
B|-----------------------------------------------------------------|
G|-----------------4-4-4-4-4-4-4-4-9-9-9-9-9-9-9-9-6-6-6-6-6-6-6-6-|
D|-6-6-6-6-6-6-6-6-4-4-4-4-4-4-4-4-9-9-9-9-9-9-9-9-6-6-6-6-6-6-6-6-|
A|-6-6-6-6-6-6-6-6-2-2-2-2-2-2-2-2-7-7-7-7-7-7-7-7-4-4-4-4-4-4-4-4-|
E|-4-4-4-4-4-4-4-4-----------------0-0-0-0-0-0-0-0-----------------|

Chorus con.
Guitar 1
e|--------------------------------------------------------------------|
B|--------------------------------------------------------------------|
G|--------------------------------------------------------------------|
D|-6-6-6-6-6-6-6-6-4-4-4-4-4-4-4-4-2-2-2-2-2-2-2-2-1-1--1-1--1-1--1-1-|
A|-6-6-6-6-6-6-6-6-4-4-4-4-4-4-4-4-2-2-2-2-2-2-2-2-1-1--1-1--1-1--1-1-|
D|-6-6-6-6-6-6-6-6-4-4-4-4-4-4-4-4-2-2-2-2-2-2-2-2-1-1--1-1--1-1--1-1-|

Guitar 2
e|--------------------------------------------------------------------|
B|--------------------------------------------------------------------|
G|-------------------------------------------------8-8--8-8--8-8--8-8-|
D|-6-6-6-6-6-6-6-6-4-4-4-4-4-4-4-4-2-2-2-2-2-2-2-2-8-8--8-8--8-8--8-8-|
A|-6-6-6-6-6-6-6-6-4-4-4-4-4-4-4-4-2-2-2-2-2-2-2-2-6-6--6-6--6-6--6-6-|
E|-4-4-4-4-4-4-4-4-2-2-2-2-2-2-2-2-0-0-0-0-0-0-0-0--------------------|

Bridge
Guitar 1
e|-------------------------------------|
B|-----------------------5-------------|
G|-4-x8-----x8-----x8----4--x4-----x4--|
D|-4------4------6-------2------4------|
A|-2------4------6-------2------4------|
D|--------4------6-------2------4------|

Guitar 2
e|--------4------4-------0------2------|
B|-4------5------4-------0------2------|
G|----x8--6--x8--4--x8---1--x4--3--x4--|
D|-4------6------6-------2------4------|
A|-2------4------6-------2------4------|
E|---------------4-------0------2------|

Solo
I'll post the solo soon! I'm still working on it!

Chorus
Guitar 1(basic strumming, figure it out :P)
e|-----------------------------------------------------------------|
B|-----------------------------------------------------------------|
G|-----------------4-4-4-4-4-4-4-4-----------------6-6-6-6-6-6-6-6-|
D|-6-6-6-6-6-6-6-6-4-4-4-4-4-4-4-4-2-2-2-2-2-2-2-2-6-6-6-6-6-6-6-6-|
A|-6-6-6-6-6-6-6-6-2-2-2-2-2-2-2-2-2-2-2-2-2-2-2-2-4-4-4-4-4-4-4-4-|
D|-6-6-6-6-6-6-6-6-----------------2-2-2-2-2-2-2-2-----------------|
                                                                      x3
Guitar 2(basic strumming, figure it out :P)
e|-----------------------------------------------------------------|
B|-----------------------------------------------------------------|
G|-----------------4-4-4-4-4-4-4-4-9-9-9-9-9-9-9-9-6-6-6-6-6-6-6-6-|
D|-6-6-6-6-6-6-6-6-4-4-4-4-4-4-4-4-9-9-9-9-9-9-9-9-6-6-6-6-6-6-6-6-|
A|-6-6-6-6-6-6-6-6-2-2-2-2-2-2-2-2-7-7-7-7-7-7-7-7-4-4-4-4-4-4-4-4-|
E|-4-4-4-4-4-4-4-4-----------------0-0-0-0-0-0-0-0-----------------|

Chorus con.
Guitar 1
e|--------------------------------------------------------------------|
B|--------------------------------------------------------------------|
G|--------------------------------------------------------------------|
D|-6-6-6-6-6-6-6-6-4-4-4-4-4-4-4-4-2-2-2-2-2-2-2-2-1-1--1-1--1-1--1-1-|
A|-6-6-6-6-6-6-6-6-4-4-4-4-4-4-4-4-2-2-2-2-2-2-2-2-1-1--1-1--1-1--1-1-|
D|-6-6-6-6-6-6-6-6-4-4-4-4-4-4-4-4-2-2-2-2-2-2-2-2-1-1--1-1--1-1--1-1-|

Guitar 2
e|--------------------------------------------------------------------|
B|--------------------------------------------------------------------|
G|-------------------------------------------------8-8--8-8--8-8--8-8-|
D|-6-6-6-6-6-6-6-6-4-4-4-4-4-4-4-4-2-2-2-2-2-2-2-2-8-8--8-8--8-8--8-8-|
A|-6-6-6-6-6-6-6-6-4-4-4-4-4-4-4-4-2-2-2-2-2-2-2-2-6-6--6-6--6-6--6-6-|
E|-4-4-4-4-4-4-4-4-2-2-2-2-2-2-2-2-0-0-0-0-0-0-0-0--------------------|

Chorus con.
Guitar 1
E|--------------------|
B|--------------------|
G|--------------------|
D|-1-1--1-1--1-1--1-1-|
A|-1-1--1-1--1-1--1-1-|
D|-1-1--1-1--1-1--1-1-|

Guitar 2
E|--------------------|
B|--------------------|
G|-8-8--8-8--8-8--8-8-|
D|-8-8--8-8--8-8--8-8-|
A|-6-6--6-6--6-6--6-6-|
E|--------------------|

Intro
Both Guitars(I put guitar 1's tuning on this first intro part so don't get confused, 
to the next intro part for guitar 2's part)
e|----------------------------------------------------|
B|----------------------------------------------------|
G|---------------------------8--8-6--8-9--8--8-6--8-9-|
D|-9--9-8--6-4--9--9-8--6-4--8--8-6--8-9--8--8-6--8-9-|
A|-9--9-8--6-4--9--9-8--6-4--6--6-4--6-7--6--6-4--6-7-|
D|-9--9-8--6-4--9--9-8--6-4---------------------------|

Guitar 1
e|----------------------------------------------------|
B|----------------------------------------------------|
G|---------------------------8--8-6--8-9--8--8-6--8-9-|
D|-9--9-8--6-4--9--9-8--6-4--8--8-6--8-9--8--8-6--8-9-|
A|-9--9-8--6-4--9--9-8--6-4--6--6-4--6-7--6--6-4--6-7-|
D|-9--9-8--6-4--9--9-8--6-4---------------------------|

Guitar 2
e|----------------------------------------------------|
B|-----9-----7------9-----7---------------------------|
G|---------------------------8--8-6--8-9--8--8-6--8-9-|
D|-9------------9------------8--8-6--8-9--8--8-6--8-9-|
A|-9------------9------------6--6-4--6-7--6--6-4--6-7-|
E|-7------------7-------------------------------------|

Chorus
Guitar 1(basic strumming, figure it out :P)
e|-----------------------------------------------------------------|
B|-----------------------------------------------------------------|
G|-----------------4-4-4-4-4-4-4-4-----------------6-6-6-6-6-6-6-6-|
D|-6-6-6-6-6-6-6-6-4-4-4-4-4-4-4-4-2-2-2-2-2-2-2-2-6-6-6-6-6-6-6-6-|
A|-6-6-6-6-6-6-6-6-2-2-2-2-2-2-2-2-2-2-2-2-2-2-2-2-4-4-4-4-4-4-4-4-|
D|-6-6-6-6-6-6-6-6-----------------2-2-2-2-2-2-2-2-----------------|
                                                                      x3
Guitar 2(basic strumming, figure it out :P)
e|----------------------4------2-----------------------------------|
B|------9------7---------------------------------------------------|
G|-----------------4-4-------------9-9-9-9-9-9-9-9-6-6-6-6-6-6-6-6-|
D|-6-6-------------4-4-------------9-9-9-9-9-9-9-9-6-6-6-6-6-6-6-6-|
A|-6-6-------------2-2-------------7-7-7-7-7-7-7-7-4-4-4-4-4-4-4-4-|
E|-4-4-----------------------------0-0-0-0-0-0-0-0-----------------|

Chorus con.
Guitar 1
e|--------------------------------------------------------------------|
B|--------------------------------------------------------------------|
G|--------------------------------------------------------------------|
D|-6-6-6-6-6-6-6-6-4-4-4-4-4-4-4-4-2-2-2-2-2-2-2-2-1-1--1-1--1-1--1-1-|
A|-6-6-6-6-6-6-6-6-4-4-4-4-4-4-4-4-2-2-2-2-2-2-2-2-1-1--1-1--1-1--1-1-|
D|-6-6-6-6-6-6-6-6-4-4-4-4-4-4-4-4-2-2-2-2-2-2-2-2-1-1--1-1--1-1--1-1-|

Guitar 2
e|--------------------------------------------------------------------|
B|--------------------------------------------------------------------|
G|-------------------------------------------------8-8--8-8--8-8--8-8-|
D|-6-6-6-6-6-6-6-6-4-4-4-4-4-4-4-4-2-2-2-2-2-2-2-2-8-8--8-8--8-8--8-8-|
A|-6-6-6-6-6-6-6-6-4-4-4-4-4-4-4-4-2-2-2-2-2-2-2-2-6-6--6-6--6-6--6-6-|
E|-4-4-4-4-4-4-4-4-2-2-2-2-2-2-2-2-0-0-0-0-0-0-0-0--------------------|

Chorus con.
Guitar 1
E|------------------------------------------------------------|
B|------------------------------------------------------------|
G|------------------------------------------------------------|
D|-1-1--1-1--1-1--1-1--1-1--1-1--1-1--1-1--1-1--1-1--1-1--1-1-|
A|-1-1--1-1--1-1--1-1--1-1--1-1--1-1--1-1--1-1--1-1--1-1--1-1-|
D|-1-1--1-1--1-1--1-1--1-1--1-1--1-1--1-1--1-1--1-1--1-1--1-1-|

Guitar 2
E|------------------------------------------------------------|
B|------------------------------------------------------------|
G|-8-8--8-8--8-8--8-8--8-8--8-8--8-8--8-8--8-8--8-8--8-8--8-8-|
D|-8-8--8-8--8-8--8-8--8-8--8-8--8-8--8-8--8-8--8-8--8-8--8-8-|
A|-6-6--6-6--6-6--6-6--6-6--6-6--6-6--6-6--6-6--6-6--6-6--6-6-|
E|------------------------------------------------------------|

That's the end! It's a great song! Listen to it! And comment please!
Добавлено: 16.07.2012
Другие материалы по этой песне:

Страница создана 18.05.2012
http://primanota.ru/hedley/shes-so-sorry-chords.htm
Привет, Гость.
Предлагаем пройти революционный курс по гитаре.
Подарок от PrimaNota.Ru, забирай!