PrimaNota.ru - самый крупный в мире бесплатный архив песенных текстов, аккордов, табулатур и нот


Hedley - Narcissist - текст песни, таба, видео

Регистрация Запомнить меня
Войти через:  Facebook Google Twitter Vk Yandex Mail.ru

Hedley - Narcissist - текст песни, таба, видео

Печатать
Просмотров: 194
-----------------------------------------------------------------------------
                     NARCISSIST - Hedley
-----------------------------------------------------------------------------
E-mail: a7xlucas@live.com

Tuning: Standard (EADGBe)

Surprised nobody made a tab for this one, it's been out since 2007...anyway enjoy!

Check out my dual guitar cover for it!: https://www.youtube.com/watch?v=CDeJJxJF5HU

/ or \ - slide to and from a note
* - palm mute
. - release (stop) note from ringing out after playing it
p - pull-off
~ - hold note

Verse:
e|---------------------------------------------------------------------------------------------------|
B|---------------------------------------------------------------------------------------------------|
G|-7~~~\--------5/7-------3-----5555------7~~~\--------5/7--------3-----5555------7777~777~777777----|
D|-6~~~\--------5/7-------3--x8-5555-5555-6~~~\--------5/7--------3--x8-5555-5555-7777~777~777777----|
A|-5~~~\-5--x24-3/5-5-x24-1-----3333-5555-5~~~\-5--x12-3/5-5--x24-1-----3333-5555-5555~555~555555----|
E|-----------------------------------3333------------------------------------3333----------------10\-|
         *          *                           *          *
Prechorus ("He falls in love...")
e|-0~---2~---3~---2~--------------|
B|-0~---2~---3~---3~--------------|
G|-0~--------0~---2~---3-----5~---|
D|-2~---4~---0~---0~---3--x8-5~---|
A|-2~---4~---2~--------1-----3~---|
E|-0~---2~---3~-------------------|

Chorus:

Guitar 1
e|--------2------------------------------------------------------------------|
B|--------2-------------------------3----------------------------------------|
G|-7------2------------7------------4------6------7------------------.--.----|
D|-7--x16-4--x16-5-----7--x8-7------4--x16-7--x16-7--x8-5-----7------5--5--5-|
A|-5------4------5--x8-5-----7--x16-2------4------5-----5--x8-7--x12-5--5--5-|
E|--------2------3-----------5--------------------------3-----5------3--3--3-|

Guitar 2
e|-10~---10~---10~---10~----9~---9~---9~---9~----5~----5~----5~----5~----5~----5~----5~----5~----|
B|----10~---10~---10~---10~---10~--10~--10~--10~----3~----3~----3~----3~----3~----3~----2~----2~-|
G|-----------------------------------------------------------------------------------------------|
D|-----------------------------------------------------------------------------------------------|
A|-----------------------------------------------------------------------------------------------|
E|-----------------------------------------------------------------------------------------------|

Guitar 2 cont'd
e|-10------9-------5~----5~----5~----5~----5~----5~----5~------------|
B|-10--x16-10--x16----3~----3~----3~----3~----3~----3~----2~---------|
G|-11------9-------------------------------------------------.--.----|
D|-----------------------------------------------------------5--5--5-|
A|-----------------------------------------------------------5--5--5-|
E|-----------------------------------------------------------3--3--3-|

Verse 2:

Guitar 1 - same as first but skip the first chord

Guitar 2
e|---0--------0~----|-0--------0~----|--------------|--------0~----|-0--------0~----|
B|-------10---------|-----10---------|--------------|---10---------|-----10---------|
G|-7---7----7----7~-|---7----7----7~-|--Rest from---|-7----7----7~-|---7----7----7~-|
D|------------------|----------------|-1:06 to 1:08-|--------------|----------------|
A|------------------|------3x--------|--------------|--------------|-------5x-------|
E|------------------|----------------|--------------|--------------|----------------|

e|--------------|--------0~----0--------0~----|
B|--------------|---10-------------10---------|
G|-Rest from----|-7----7----7~---7----7----7~-|
D|-1:17 to 1:19-|-----------------------------|
A|--------------|-----------------------------|
E|--------------|-----------------------------|

Repeat:
Prechorus
Chorus

Postchorus/bridge:

Guitar 1
e|-------------3x----|-5~--------------------------||
B|-------------------|-x---------------------------||
G|-7~--------.--.----|-7~--------------------------||
D|-7~--------5--5--5-|-7~--------------------------||
A|-5~-5--x10-5--5--5-|-5~--------------------------||
E|-----------3--3--3-|-----------------------------||
      *
Guitar 2
e|-------------------|-5~----5~----------------------5~----|------------|-------------------------|
B|-------------------|----7~----7~-7~----7~----7~----------|-7~-----10x-|-3~----3~----5~----5~----|
G|-----(silence)-----|----------------7~----7~----7~----7~-|----7~------|----3~----3~----5~----5~-|
D|-------------------|-------------------------------------|------------|-------------------------|
A|-------------------|-------------------------------------|------------|-------------------------|
E|-------------------|-------------------------------------|------------|-------------------------|

e|---------------------0-0~-|-5~----|------3~----5p3------0-|
B|-7~----7~----7~----7------|-7~----|-3~-3----3~-----3------|
G|----7~----7~----7~--------|----7~-|-3~---------------5~---|
D|--------------------------|-------|-----------------------|
A|--------------------------|--8x---|-----------------------|
E|--------------------------|-------|-----------------------|
                              ^This part seems to have another guitar line under it
Postchorus/bridge cont'd:

Guitar 1
e|-----------------------------------|
B|-----------------------------------|
G|-7~---6~---4~----------------------|
D|-7~---7~---4~---5-----4-----7------|
A|-5~---4~---2~---5--x8-4--x8-7--x16-|
E|----------------3-----2-----5------|
                  *     *     *Gradually lift palm mute
Guitar 2
e|--------------|-5~----5~----5~----5~----5~----5~----5~----5~----|
B|--------------|----3~----3~----3~----3~----3~----3~----2~----2~-|
G|--------------|-------------------------------------------------|
D|---(silence)--|-------------------------------------------------|
A|--------------|-------------------------------------------------|
E|--------------|-------------------------------------------------|

Final Chorus:
 
Guitar 1, 2x
e|---------------------------------------------------------------------------|
B|-3--------------------------------3------5---------------------------------|
G|-4------6------7------------------4------6------7------------------.--.----|
D|-4--x16-7--x16-7--x8-5-----7------4--x16-7--x16-7--x8-5-----7------5--5--5-|
A|-2------4------5-----5--x8-7--x16-2------4------5-----5--x8-7--x12-5--5--5-|
E|---------------------3-----5--------------------------3-----5------3--3--3-|

Guitar 2 - I only hear this played 1x
e|-10~---10~---10~---10~----9~---9~---9~---9~----5~----5~----5~----5~----5~----5~----5~----5~----|
B|----10~---10~---10~---10~---10~--10~--10~--10~----3~----3~----3~----3~----3~----3~----2~----2~-|
G|-----------------------------------------------------------------------------------------------|
D|-----------------------------------------------------------------------------------------------|
A|-----------------------------------------------------------------------------------------------|
E|-----------------------------------------------------------------------------------------------|

Repeat: 
Prechorus/bridge - Guitar 1 ONLY
Добавлено: 01.08.2015
Другие материалы по этой песне:
  • Аккорды и текст

Страница создана 16.08.2013
http://primanota.ru/hedley/narcissist-chords.htm
Привет, Гость.
Предлагаем пройти революционный курс по гитаре.
Подарок от PrimaNota.Ru, забирай!