PrimaNota.ru - самый крупный в мире бесплатный архив песенных текстов, аккордов, табулатур и нот


Hedley - I Bleed - таба, видео

Регистрация Запомнить меня
Войти через:  Facebook Google Twitter Vk Yandex Mail.ru

Hedley - I Bleed - таба, видео

Печатать
Просмотров: 212
i was just foolin around with my guitar and i found the tab.it doesn't matter if you 
hit the fourth string when you strum.

here it is

e|---------------------------------|
B|---------------------------------|
G|-8-8-----3-3-----5-5-----1--1-1-1|
D|-9-9-----4-4-----6-6-----2--2-2-2|      x3
A|-9-9-----4-4-----6-6-----2--2-2-2|
E|-7-7-----2-2-----4-4-----0--0-0-0|

e|--------------------------------|
B|--------------------------------|
G|-8-8-8-8-3-3-3-3-5-5-5-5-1-1-1-1|
D|-9-9-9-9-4-4-4-4-6-6-6-6-2-2-2-2|
A|-9-9-9-9-4-4-4-4-6-6-6-6-2-2-2-2|
E|-7-7-7-7-2-2-2-2-4-4-4-4-0-0-0-0|

hope you like it

alex
Добавлено: 10.04.2012
Другие материалы по этой песне:
  • Аккорды и текст

Страница создана 26.02.2012
http://primanota.ru/hedley/i-bleed-chords.htm
Привет, Гость.
Предлагаем пройти революционный курс по гитаре.
Подарок от PrimaNota.Ru, забирай!