PrimaNota.ru - самый крупный в мире бесплатный архив песенных текстов, аккордов, табулатур и нот


Hedley - Dangerous - таба, видео

Регистрация Запомнить меня
Войти через:  Facebook Google Twitter Vk Yandex Mail.ru

Hedley - Dangerous - таба, видео

Печатать
Просмотров: 189
contact me if something at adalekstazchuck@yahoo.com


Drop B

Verse:
Gtr1:                               gtr 2:
-----------------------------------|---------------|
-----------------------------------|---------------|
-----------------------------------|---------------|
-----------------------------------|---7-7-7--77---|
---0-0-7-0---0-0-6-0-0-6-0-0-7-0---|---7-7-7--77---|
-----------------------------------|---7-7-7--77---|

Chorus:
------------------------------------------|
------------------------------------------|
------------------------------------------|
-----------------5h7-7--------------------|
---0-0-7-0--0-0--------0-0-6-0--0-0-6-0---|
------------------------------------------|

Pre-chorus: (gtr2)
---5-5-5-3-3-0-0-0-5h6-5h6-0---|
-------------------------------|
-------------------------------|
-------------------------------|
-------------------------------|
-------------------------------|

Bridge:
-----------------------------|-----------|
-----------------------------|-----------|
-----------2-0---------------|-----------|
---------------1-0-----------|---5-7-5---|
-------------------3---------|---5-7-5---|
---7-5-1-0-----------5-7-5---|---5-7-5---|
Добавлено: 01.03.2012
Другие материалы по этой песне:
  • Аккорды и текст

Страница создана 01.03.2012
http://primanota.ru/hedley/dangerous-chords.htm
Привет, Гость.
Предлагаем пройти революционный курс по гитаре.
Подарок от PrimaNota.Ru, забирай!