PrimaNota.ru - самый крупный в мире бесплатный архив песенных текстов, аккордов, табулатур и нот


Hed Pe - Suffa - текст песни, таба, видео

Регистрация Запомнить меня
Войти через:  Facebook Google Twitter Vk Yandex Mail.ru

Hed Pe - Suffa - текст песни, таба, видео

Печатать
Просмотров: 335
(hed)p.e.
"Suffa"
Insomnia
2007

Started playin' round in Drop B n tried playin "Suffa" by ear.
Ended up with this.
I'm thinkin' it has 2 guitars so I tried tabbin' a rhythm.

Drop B (B F B E G c)

Rhythm Guitar

Intro/Chorus (Played 8 Times)

c----------------------|
G----------------------|
E----------------------|
B--300-300-300-5575-3--|
F--300-300-300-5575-3--|
B--300-300-300-5575-3--|

Pre-Verse 1

c--10~-------10~--|
G--10~-------10~--|
E--10~-------10~--|
B-----------------|
F-----------------|
B-----------------|

Verse

c--------------------------|
G--------------------------|
E--------------------------|
B----3--3-3----3---3-------|
F--55-55---5-5---5--[X4]---|
B--------------------------|

c------------------------------------------------|
G------------------------------------------------|
E------------------------------------------------|
B-------3-3----3---3--------3--3-3----3---3------|
F--55355---5-5---5---[X1]-55-55---5-5---5--[X2]--|
B------------------------------------------------|

c---------------------|
G---------------------|
E---------------------|
B----3--3-3-----------|
F--55-55---5-3-5-3-5--|
B---------------------|

Bridge

c----------------------------|
G----------------------------|
E----------------------------|
B--00000--0000--00000--0000--|
F--00000--0000--00000--0000--|
B--00000--0000--00000--0000--|

c----------------------------|
G----------------------------|
E----------------------------|
B--00000--0000--00000--0000--|
F--00000--0000--00000--0000--|
B--00000--0000--00000--0000--|

c-----------------------------------------------------|
G-----------8-10/6-----------8-10/6-----------8-10/6--|
E----7-9-10-----------7-9-10-----------7-9-10---------|
B--7----------------7----------------7----------------|
F-----------------------------------------------------|
B-----------------------------------------------------|

c--10~--|
G--10~--|
E--10~--|
B-------|
F-------|
B-------|

Outro (Played 4 Times)

c------------------|
G------------------|
E----------7~------|
B--0~--6~--7~--6~--|
F--0~--6~--5~--6~--|
B--0~--6~------6~--|

Basically it's...

Intro/Chorus
Pre-Verse 1
Verse
Intro/Chorus
Pre-Verse 2
Verse
Intro/Chorus
Bridge
Intro/Chorus
Outro

Tabbed by X8<-(Triggar8)->8X

Enjoy.
Добавлено: 15.11.2013
Другие материалы по этой песне:
  • Аккорды и текст

Страница создана 02.04.2012
http://primanota.ru/hed-pe/suffa-chords.htm
Привет, Гость.
Предлагаем пройти революционный курс по гитаре.
Подарок от PrimaNota.Ru, забирай!