PrimaNota.ru - самый крупный в мире бесплатный архив песенных текстов, аккордов, табулатур и нот


Hed Pe - Crazy Legs - аккорды и текст, таба, видео

Регистрация Запомнить меня
Войти через:  Facebook Google Twitter Vk Yandex Mail.ru

Hed Pe - Crazy Legs - аккорды и текст, таба, видео

Печатать
Просмотров: 235
Уроки эстрадного вокала в Санкт-Петербурге
Crazy Legs
Hed Pe
BaNd:(hed)p.e.
SoNg:Crazy Legs
TuNiNg:B-E-A-D-G-B
 
 =HARMONIC


B-----------------------|
G-----------------------|
D-----------------------|(w/dist)
A-----------------------|
E-----------------------|
B-0-0-0-3-0-0-0-0-3-0-0-|


B---------12--------------|
G---------12--------------|
D---------12--------------|(w/dist, strum harmonic
A--------------------------| upwards)
E-5-6-7------5-2-5-4-5-6-7-|
B-3-4-5------3-0-3-2-3-4-5-|




 Sorry about the last one I did (Killing time), the tuning was way off but the tab is right.
Добавлено: 11.12.2013
Другие материалы по этой песне:
  • Аккорды и текст

Страница создана 05.05.2012
http://primanota.ru/hed-pe/crazy-legs-chords.htm
Привет, Гость.
Предлагаем пройти революционный курс по гитаре.
Подарок от PrimaNota.Ru, забирай!