PrimaNota.ru - самый крупный в мире бесплатный архив песенных текстов, аккордов, табулатур и нот


Hector Ayala - Serie Americana - 1 Choro - таба, видео

Регистрация Запомнить меня
Войти через:  Facebook Google Twitter Vk Yandex Mail.ru

Hector Ayala - Serie Americana - 1 Choro - таба, видео

Печатать
Просмотров: 118
SERIE AMERICANA - 1 Choro (Brazil) - Hector Ayala

Tabbed by Dirk "Dimman" Roth
(dimman@arcor.de)

|_3_|  triplet (3 notes played in the time of 2 notes)

*******************************************************************

Standard Tuning       
      
Andante (= 63)
                             
                            VII  V-------------------------|
E||-------10--10-||---8---8-7-7--5-|----------8--8-|--7---7-5-5--3-|
B||--------------||---6-----9------|------5--------|--5-----5----0-|
G||--------------||*--7-----7------|------5--------|--5-----5----0-|
D||--------------||*--0------------|--7------------|--5-----4------|
A||--------------||---------7------|--------7------|---------------|
E||--------------||----------------|---------------|---------------|

|----------7----|--0----------0-|----------8----|---------------|
|-------------7-|--0---3-2h3----|-------------7-|--5---3-2-3--5-|
|---------------|--------0------|---5--5--------|--5-----4-5--4-|
|---2p-1-0------|---------------|---4--4--------|--4-----3-4--5-|
|---------------|--------2------|--------0------|---------------|
|---------------|--3------------|---------------|---------------|

                               V--------------------------------|
|---------10--10-|--8-----8-7-7--5-|-------------5h8-|--7------7-5---3-|
|-----3----------|------6---5-5--5-|-----------5-----|--5------5-5---0-|
|-----4----------|----7-----7-7--5-|---------5-------|--5------5-5---0-|
|-------10-------|--7-------6----7-|-------7---------|--5---5----4-0---|
|----------------|-----------------|-----7-----------|----7------------|
|-3--------------|-----------------|---8-------------|-----------------|

                    V--------------|           
|----------------|----5--7-5--------|--5---3---2--0-|-----------------|
|----------------|------------8--7--|--3-------2----|--5p3-2h3-7p5--5-|
|-----------2--0-|---------5-----5--|----------0----|--5------------4-|
|-------0h3------|------------------|---------------|--4------------5-|
|---1h2----------|--7------6-----5--|--2-----1------|--0--------------|
|----------------|------------------|---------------|-----------------|

  
      III |_3_|                                             V--|   VII
|---------------|-----------------|----------------|------------5-----|
|------3--------|-----------------|-----------5--7-|--8---5-8-7----8--|
|------4--------|----5--7-5-4---4-|----5--7--------|----6-----5----7--|
|------3--------|-------------7---|----------------|----------0----9--|
|---------------|---------6-----5-|----------------|--0------------10-|
|--3------3-5-7-|--8--------------|--3------7------|------------------|

                                                         VII
|----------------|-----------------|---------------|---------------|
|----------------|----------8-8--8-|------7---8--8-|-----7---12--4-|
|----------------|-----------------|---------------|-----8---------|
|-----9-8-7------|----9-8h9------8-|------8---8--7-|-----7---------|
|-----------9--6-|--7--------------|--------7------|---------------|
|---7------------|----------7------|--0------------|--7------------|

                               V----------|
|---------------|----------------|--------------|----------------|
|--7---5--------|-----0h3-6-6--6-|------5--6--5-|--4---3---------|
|------4--------|---1-----4-4--5-|------5-------|--2---2-----2-5-|
|------5--------|---------6-6--7-|--------------|--4---4---4-----|
|-----------2---|----------------|--0-----------|--3-----0-------|
|--0------0---1-|-0--------------|--------------|----------------|

                                                         VII
|----------------|-----------------|---------------|--------------|
|------0-------0-|----------8-8--8-|------7---8--8-|-----7--------|
|--5---------2---|-----------------|---------------|-----8---9--8-|
|--0-------1-----|----9-8h9------8-|------8---8--7-|-----7--------|
|----------------|-----------------|--------7------|--------------|
|--3-----2-------|--0-------7------|--0------------|--7-----------|

                     V------|                                     VII
|---------------|--------------------|----------------|------------------|
|--7---5--------|----7p5-------------|-------------12-|--8-----8--7-7--5-|
|--7---7--------|--------5-----------|----------------|--9-----9--8-8--4-|
|--6---6--------|----------7-9-10-10-|------9--8-9----|--10----10-7-7--5-|
|---------------|--------------------|----------------|------0-----------|
|--0------0-2-4-|--5-----------------|--0-------------|-----------7----0-|

    VIII VII                     VII                              CII
|-----------10--10--||------------------|---------------|--------------0-|
|-------------------||--8-----8--7-7--5-|----------5--5-|----5--5-5-4--0-|
|---8--8--7--------*||--9-----9--8-8--4-|----------4--4-|----3--3-2-2--0-|
|---8--8--7--------*||--10----10-7-7--5-|----------5--5-|----4--4-4-4--2-|
|---10-10-9---------||------0-----------|-----2/5-------|--4------3-2----|
|-------------------||-----------7------|--0------------|----------------|

         CXII
|--------14----||
|--------12----||
|--------12----||
|--------------||
|--------------||
|---0--0-------||

*************************************************************************

Добавлено: 29.04.2012
Другие материалы по этой песне:
  • Аккорды и текст

Страница создана 29.04.2012
http://primanota.ru/hector-ayala/serie-americana-1-choro-chords.htm
Привет, Гость.
Предлагаем пройти революционный курс по гитаре.
Подарок от PrimaNota.Ru, забирай!