PrimaNota.ru - самый крупный в мире бесплатный архив песенных текстов, аккордов, табулатур и нот


Hebe Tien - A Little Happiness - таба, видео

Регистрация Запомнить меня
Войти через:  Facebook Google Twitter Vk Yandex Mail.ru

Hebe Tien - A Little Happiness - таба, видео

Печатать
Просмотров: 63
-------------------------------------------------------------------------------
                 小幸運 A Little Happiness - 田馥甄 Hebe Tien
-------------------------------------------------------------------------------
Very rough.. Doesn't match exactly with the real song, but it works well enough (from what I hear).

Tabbed by: Prescott
Capo: 5

Tuning: Standard E Tuning
  
e|--------0------------------------------------------------------------------|
B|---------------------------------------------------------------------------|
G|-----0--------0----------5----------------------------------0--------------|
D|----------------------4--------4----------3-------------0h2-------2--------|
A|--3--------3-------5--------5----------2-------2-----3---------3-----------|
E|------------------------------------3--------3-----------------------------|

e|--------0------------------------------------------------------------------|
B|---------------------------------------------------------------------------|
G|-----0--------0----------5----------------------------------0--------------|
D|----------------------4--------4----------3-------------0h2-------2--------|
A|--3--------3-------5--------5----------2--------2----3---------3------2----|
E|------------------------------------3--------3-----------------------------|

e|---------------------------------------------------------------------------|
B|--------1------------------------------------------------------------------|
G|-------------------------5----------------------------------0--------------|
D|-----2--------2-------4--------4----------3-------------0h2-------2--------|
A|--0--------0-------5--------5----------2--------2----3---------3------2----|
E|------------------------------------3--------3-----------------------------|

e|--------0------------------------------------------------------------------|
B|---------------------------------------------------------------------------|
G|-----0--------0----------5----------------------------------0--------------|
D|----------------------4--------4----------3-------------0h2-------2--------|
A|--3--------3-------5--------5----------2--------2----3---------3------2----|
E|------------------------------------3--------3-----------------------------|

e|---------------------------------------------------------------------------|
B|--------1------------------------------------------------------------------|
G|-------------------------5----------------------------------0--------------|
D|-----2--------2-------4--------4----------3-------------0h2-------2--------|
A|--0--------0-------5--------5----------2--------2----3---------3------2----|
E|------------------------------------3--------3-----------------------------|

e|-----------3--------------------1---------------------------------------------|
B|--------1------1-----1---------------0-----0-----------3---------------------1|
G|-----2------------2-----------0---------0-----------0------0-----0--------0---|
D|--3----------------------------------------------2------------2--------2------|
A|---------------------------2------------------2---------------------0---------|
E|------------------------3-----------------------------------------------------|

e|--------------------1---------------------2---------------------1-------------|
B|-----------------3------3-----3--------1------1-----1---------------0-----0---|
G|--0-----0-----2------------2--------2------------2-----------0---------0------|
D|-----2-----0---------------------0--------------------------------------------|
A|----------------------------------------------------------2-------------------|
E|-------------------------------------------------------3----------------------|

Single G Chord Strum (320002) 

INTO CHORUS (Chorus is chords)

C
G
Am
Em
F
C
G7

G G F G

C
G
Am
Em
F
C
G7

G

C
G7
Gm
G

Play tab while G is still ringing

e|--------0------------------------------------------------------------------|
B|---------------------------------------------------------------------------|
G|-----0--------0----------5----------------------------------0--------------|
D|----------------------4--------4----------3-------------0h2-------2--------|
A|--3--------3-------5--------5----------2--------2----3---------3------2----|
E|------------------------------------3--------3-----------------------------|

e|---------------------------------------------------------------------------|
B|--------1------------------------------------------------------------------|
G|-------------------------5----------------------------------0--------------|
D|-----2--------2-------4--------4----------3-------------0h2-------2--------|
A|--0--------0-------5--------5----------2--------2----3---------3------2----|
E|------------------------------------3--------3-----------------------------|

e|-----------3--------------------1---------------------------------------------|
B|--------1------1-----1---------------0-----0-----------3---------------------1|
G|-----2------------2-----------0---------0-----------0------0-----0--------0---|
D|--3----------------------------------------------2------------2--------2------|
A|---------------------------2------------------2---------------------0---------|
E|------------------------3-----------------------------------------------------|

e|--------------------1---------------------2---------------------1-------------|
B|-----------------3------3-----3--------1------1-----1---------------0-----0---|
G|--0-----0-----2------------2--------2------------2-----------0---------0------|
D|-----2-----0---------------------0--------------------------------------------|
A|----------------------------------------------------------2-------------------|
E|-------------------------------------------------------3----------------------|

Will finish the song asap

************************************

| /   slide up
| \   slide down
| h   hammer-on
| p   pull-off
| ~   vibrato
| +   harmonic
| x   Mute note
| b   Bend
| pb  Pre-bend
| br  Bend release
| pbr Pre-bend release
| brb Bend release bend

************************************
Добавлено: 28.04.2016
Вам также может быть интересно:
Другие материалы по этой песне:
  • Аккорды и текст

Страница создана 28.04.2016
http://primanota.ru/hebe-tien/little-happiness-chords.htm
Привет, Гость.
Предлагаем пройти революционный курс по гитаре.
Подарок от PrimaNota.Ru, забирай!