PrimaNota.ru - самый крупный в мире бесплатный архив песенных текстов, аккордов, табулатур и нот


Heavy Vegetable - I Owe You - аккорды и текст, таба, видео

Регистрация Запомнить меня
Войти через:  Facebook Google Twitter Vk Yandex Mail.ru

Heavy Vegetable - I Owe You - аккорды и текст, таба, видео

Печатать
Просмотров: 131
I Owe You
Heavy Vegetable
		   I owe you
by Heavy Vegetable

Transcribed by me.

 (dropped-D tuning)

my  muscles       hurt         again           i  wish they'd
E---------------|--------------|-------------|---------------|
B---------5-0---|-------5-0----|-------5-0---|-------5-6-5---|
G-------0-----0-|-----0--------|-----0-----0-|-----0---------|
D---7-0---------|-7-0----------|-7-0---------|-7-0-----------|
A---------------|--------------|-------------|---------------|
D---------------|--------------|-------------|---------------|

    go                          away
E---------------|---------------|--------------|-------------|
B---------------|---------------|--------------|-------------|
G---5---5-5-5-5-|--5---5-5-5-5--|--2---2-2-2-2-|-------0-----|
D---------------|---------------|--2---2-2-2-2-|----2--------|
A---3---3-3-3-3-|--3---3-3-3-3--|--0---0-0-0-0-|-0-----------|
D---------------|---------------|--------------|-------------|

  i haven't      done         a  thing          for
E---------------|--------------|-------------|--------------|
B---------5-0---|-------5-0----|-------5-0---|-5--5-5-6-5---|
G-------0-----0-|-----0--------|-----0-----0-|-0--0-0-0-0---|
D---7-0---------|-7-0----------|-7-0---------|-7--7-7-7-7---|
A---------------|--------------|-------------|--------------|
D---------------|--------------|-------------|--------------|

too               many            days
E---------------|---------------|--------------|-------------|
B---------------|---------------|--------------|-------------|
G---5---5-5-5-5-|--5---5-5-5-5--|--2---2-2-2-2-|-------0-----|
D---------------|---------------|--2---2-2-2-2-|----2--------|
A---3---3-3-3-3-|--3---3-3-3-3--|--0---0-0-0-0-|-0-----------|
D---------------|---------------|--------------|-------------|

                                              i can't remem-
E---------------|-------------|-------------|---------------|
B-------3-----3-|-3--1--------|-----3-----3-|-1-------------|
G----------2----|-------2-----|--------2----|----2----------|
D---0-----------|----------3--|--0----------|-------3-------|
A---0-----------|-------------|--0----------|-----------3---|
D---0-----------|-------------|--0----------|---------------|

  ber                                      what they were for
E---------------|-------------|-------------|---------------|
B-------3-----3-|-3--1--------|-----3-----3-|-1-------------|
G----------2----|-------2-----|--------2----|----2----------|
D---0-----------|----------3--|--0----------|-------3-------|
A---0-----------|-------------|--0----------|-----------3---|
D---0-----------|-------------|--0----------|---------------|

   anyway
E|| --------------|-------------|--6p5-5--X-X-|-5---5-5-5-5--|
B|| --------5-X-X-|-5---5-5-5-5-|--3---3--X-X-|-3---3-3-3-3--|
G||.----------X-X-|-------------|--3---3--X-X-|-3---3-3-3-3--|
D||.--0---X-3-X-X-|-3---3-3-3-3-|-------------|--------------|
A|| --0---0-------|-------------|-------------|--------------|
D|| --0---0-------|-------------|-------------|--------------|

E--------------|-------------|--0h1-1-0-|----------- ||
B--------5-X-X-|-5---5-5-5-5-|----------|-3--3-3-5-- ||
G----------X-X-|-------------|----------|-----------.||
D--0---X-3-X-X-|-3---3-3-3-3-|----------|-----------.||
A--0---0-------|-------------|----------|----------- ||
D--0---0-------|-------------|----------|----------- ||

(let ring ===>)
E----1------1---|---1------3-|------0---|-----0--0h1p0--|
B---------------|------------|--------1-|---------------|
G---------------|------------|-3-2------|-3-2-----------|
D---------------|-------2----|----------|---------------|
A---------------|------------|----------|---------------|
D--3------------|------------|----------|---------------|

(let ring ===>)
E----1-----1---|---1-------3-|------0---|-----0--0h1p0--|
B--------------|--------1----|--------1-|---------------|
G--------------|-------------|-3-2------|-3-2-----------|
D--------3-----|-3----2------|----------|---------------|
A--------------|-------------|----------|---------------|
D--3-----------|-------------|----------|---------------|

okay, for the "gonna fill out.." part,
just play an F chord adding the second when he say "out"
with your pinky on the 3 fret of the high E string
when he sings "iou's"  play the last two bars of the
quiet part.

the song ends on an F7M  
this is the voicing:

E----0----------
B----1----------
G----2----------
D----3----------
A----3----------
D---------------

If there's any noticable mistakes, send me mail.

jan.rudy@utoronto.ca     
Добавлено: 27.08.2013
Вам также может быть интересно:
Другие материалы по этой песне:
  • Аккорды и текст

Страница создана 02.03.2012
http://primanota.ru/heavy-vegetable/i-owe-you-chords.htm
Привет, Гость.
Предлагаем пройти революционный курс по гитаре.
Подарок от PrimaNota.Ru, забирай!