PrimaNota.ru - самый крупный в мире бесплатный архив песенных текстов, аккордов, табулатур и нот


Heavy Lord - Chained To The World - таба, видео

Регистрация Запомнить меня
Войти через:  Facebook Google Twitter Vk Yandex Mail.ru

Heavy Lord - Chained To The World - таба, видео

Печатать
Просмотров: 41
Уроки эстрадного вокала в Санкт-Петербурге
Riff 1:
 B|--------------------------------------------------------------------------------|
F#|--------------------------------------------------------------------------------|
 D|--------------------------------------------------------------------------------| x4
 A|--------------------------------------------------------------------------------|
 E|--------------------------------------------------------------------------------|
 B|0h2-3b-0-0-1-0--0h2-3b-0-0-1-0--0h2-3b-0-0-1-0--0h2h3-0h3h6-0h10h12-0h8h10------|

Riff 2:
 B|--------------|--|--------------------------------------------------------------|
F#|--------------|--|--------------------------------------------------------------|
 D|--------------|x7|--------------------------------------------------------------|
 A|--------------|--|--------------------------------------------------------------|
 E|--------------|--|--------------------------------------------------------------|
 B|0-2-3-0--0-1-0|--|0h2h3-0h3h6-0h10h12-0h8h10------------------------------------|
   . . . .  . . .

Riff 3:
 B|------------------------------------|--|----------------------------------------|
F#|------------------------------------|--|----------------------------------------|
 D|------------------------------------|x3|----------------------------------------|
 A|------------------------------------|--|----------------------------------------|
 E|4-4-7-9-~10-------------------------|--|4-4-7-9-~10--~9-------------------------|
 B|2-2-5-7-~8--~10--5p0-0-0-0-3h5-0-0-0|--|2-2-5-7-~8-------5p0-0-0-0-3h5-0-0-0----|
                        . . .     . . .                         . . .     . . .
After the Riff 3 - B5 palm muted 9 times then B5 open

Riff 4:
 B|------------------------------------------------------------------------------------------------------------|
F#|------------------------------------------------------------------------------------------------------------|
 D|------------------------------------------------------------------------------------------------------------|
 A|------------------------------------------------------------------------------------------------------------|
 E|10--10-10-10-10-9--9-9-9-9-12--12-12-12-12-10--10-10-10-10-10--10-10-10-10-9--9-9-9-9--12--12-12-12-12--~13-|
 B|------------------------------------------------------------------------------------------------------------|

Riff 5:
 B|--------------------------------------------------------------|--|
F#|--------------------------------------------------------------|--|
 D|--------------------------------------------------------------|x3|
 A|--------------------------------------------------------------|--|
 E|5-5-5-7-7-7-8-8-8-7-7-7-5-5-5-7-7-7-8-8-8-7-7-7-7-7-7-10-10-10|--|
 B|------------------------------------------------5-5-5-8--8--8-|--|

 B|--------------------------------------------------------------------------------|
F#|--------------------------------------------------------------------------------|
 D|--------------------------------------------------------------------------------|
 A|--------------------------------------------------------------------------------|
 E|8-8-8-10-10-10-12-12-12-10-10-10-8-8-8-10-10-10-12-12-12-10-10-10-7-7-7-10-10-10|
 B|------------------------------------------------------------------5-5-5-8--8--8-|


Riff 6:
 B|-----|--|-----------|-----------------------------------------------------------|
F#|-----|--|-----------|-----------------------------------------------------------|
 D|-----|x8|-----------|-----------------------------------------------------------|
 A|-----|--|-----------|-----------------------------------------------------------|
 E|-----|--|4-4-4-7-7-7|---4-4-4-7-7-7-4-4-4-7-7-7---------------------------------|
 B|7-7-7|--|2-2-2-5-5-5|---2-2-2-5-5-5-2-2-2-5-5-5---------------------------------|
  _____________________ x4                   . . .

Riff 7:
 B|--------------------------------------------------------------------------------|
F#|--------------------------------------------------------------------------------|
 D|--------------------------------------------------------------------------------|
 A|--------------------------------------------------------------------------------|x2
 E|10b-2-2-2-9b-2-2-2-7b-2-2-2-3-5-7-5--10b-2-2-2-9b-2-2-2-7b-2-2-2-3-5-10-9-------|
 B|----0-0-0----0-0-0----0-0-0--------------0-0-0----0-0-0----0-0-0----------------|

Riff 8:
 B|--------------------------------------------------------------------------------|
F#|--------------------------------------------------------------------------------|
 D|-4-2--4-2--0-2----------4-2--4-2--0-2-~5-4-2------------------------------------|
 A|5___-4___-2___-----5-4-5___-4___-2___-------------------------------------------|
 E|---let  ring---2-5--------------------------------------------------------------|
 B|--------------------------------------------------------------------------------|
 I'm not completely sure about this riff, will update it later.

Riff 9:
 B|--------------------------------------------------------------------------------|
F#|--------------------------------------------------------------------------------|
 D|--------------------------------------------------------------------------------|
 A|--------------------------------------------------------------------------------|
 E|---2-2-2----2-2-2---2-2-2-3-5-7-5----2-2-2----2-2-2---2-2-2-3-5-----------------|
 B|3b-0-0-0-2b-0-0-0-0-0-0-0---------3b-0-0-0-2b-0-0-0-0-0-0-0-----3-2-------------|
      . . .    . . .   . . .            . . .    . . .   . . .           

 B|--------------------------------------------------------------------------------|
F#|--------------------------------------------------------------------------------|
 D|--------------------------------------------------------------------------------|
 A|--------------------------------------------------------------------------------|
 E|---2-2-2----2-2-2---2-2-2-3-5-7-5----2-2-2----2-2-2---2-2-2-3-5-10-9--7---------|
 B|3b-0-0-0-2b-0-0-0-0-0-0-0---------3b-0-0-0-2b-0-0-0-0-0-0-0---------------------|
      . . .    . . .   . . .            . . .    . . .   . . .            

Riff 10:
 B|12--|
F#|-12-|
 D|--11|
 A|----|
 E|----|
 B|----|

Order:
Riff 1
Riff 2
Riff 3
Riff 2
Riff 10
Riff 4
Riff 5
Riff 6 
Riff 3
Riff 7
Riff 8
Riff 7
Riff 9
Добавлено: 02.06.2016
Вам также может быть интересно:
Другие материалы по этой песне:
  • Аккорды и текст

Страница создана 02.06.2016
http://primanota.ru/heavy-lord/chained-to-world-chords.htm
Привет, Гость.
Предлагаем пройти революционный курс по гитаре.
Подарок от PrimaNota.Ru, забирай!