PrimaNota.ru - самый крупный в мире бесплатный архив песенных текстов, аккордов, табулатур и нот


Heavy Heavy Low Low - Tragic Tragic Tragic Track Jacket - таба, видео

Регистрация Запомнить меня
Войти через:  Facebook Google Twitter Vk Yandex Mail.ru

Heavy Heavy Low Low - Tragic Tragic Tragic Track Jacket - таба, видео

Печатать
Просмотров: 100
----------------------
Tragic, Tragic, Track Jacket - HeavyHeavyLowLow
----------------------

Tuning: Standard

++KEY++++++++++++++++
p---pull off
h---hammer on
/---slide up
\---slide down
t---tremelo pick
*---pinch harmonic
~---let ring
+++++++++++++++++++++

|-------------------------------------------------------------------|
|-------------------------------------------------------------------|
|-6---6---6---6---6---6---6---6---4---4---4---4---4---4---4---4---4-| [2x]
|-5---5---5---5---5---5---5---5---3---3---3---3---3---3---3---3---3-|
|---0---0---0---0---0---0---0---0---0---0---0---0---0---0---0---0---|
|---0---0---0---0---0---0---0---0---0---0---0---0---0---0---0---0---|

|---------------------------------|
|---------------------------------|
|-------------------7-6-5---------|
|-7p6---6p5---5-6-7-------8p7-8p7-|
|-----6-----5---------------------|
|---------------------------------|

|--------------------------------|
|--------------------------------|
|-----------------------7--------|
|-7p6---6p5---------------8p7-7*-|
|-----6-----5-6p5-6p5-7----------|
|--------------------------------|


|---------------------------------|
|---------------------------------|
|-------------------7-6-5---------|
|-7p6---6p5---5-6-7-------8p7-8p7-|
|-----6-----5---------------------|
|---------------------------------|


|--------------------------------|
|--------------------------------|
|-----------------------7--------|
|-7p6---6p5---------------8p7-7*-|
|-----6-----5-6p5-6p5-7----------|
|--------------------------------|

|----------------------------------------------------------|
|----------------------------------------------------------|
|-------8---------------8---------------8---------------8*-|
|----------------------------------------------------------| [2x]
|-7-6-7---7-6-7-6-7-6-7---7-6-7-6-7-6-7---7-6-7-6-7-6-7----|
|----------------------------------------------------------|

|--------------------|
|--------------------|
|--------------------|
|--------------------|
|-5---5---5---5---5~-|
|-5---5---5---5---5~-|



|-2-------2---------------2-------2-------5/7---------|
|---3-5/8---3-5/8-5h6-5p3---3-5/8---3-5/8-----5h6-5p3-|
|-----------------------------------------------------|
|-----------------------------------------------------|
|-----------------------------------------------------|
|-----------------------------------------------------|


|-2-------2---------------2-------5/7-|
|---3-5/8---3-5/8-5h6-5p3---3-5h6-----|
|-------------------------------------|
|-------------------------------------|
|-------------------------------------|
|-------------------------------------|


|-7/9-7/9h10-10/12-12-14-14-14-12-10-12-10/12\10------|
|------------------------------------------------10p8-|
|-----------------------------------------------------|
|-----------------------------------------------------|
|-----------------------------------------------------|
|-----------------------------------------------------|


|-2-------2-------5/7-----2-------2-------------|
|---3-5/8---3-5/8-----5p3---3-5/8---3-5/8-------|
|-----------------------------------------------|
|-----------------------------------------------|
|-----------------------------------------2/5-5-|
|-----------------------------------------------|


|-2-2-2-2-2-2-2-2-2-2-2-2-2-2-----------------2-2-2-2-2-2-2-2-2-2-2-|
|-3-3-3-3-3-3-3-3-3-3-3-3-3-3-5-5-5-5-5/6-5\3-3-3-3-3-3-3-3-3-3-3-3-|
|-------------------------------------------------------------------| [4x]
|-------------------------------------------------------------------|
|-------------------------------------------------------------------|
|-------------------------------------------------------------------|

|-2-------2---------------2---3/7-7\3-5/7--------|
|---3-5/8---3-5/8-5h6-5p3---3-------------7h8-10-|
|------------------------------------------------|
|------------------------------------------------| [4x]
|------------------------------------------------|
|------------------------------------------------|

|-2-2-2-2-2-2-2-2-2-2-2-2-2-2-----------------2-2-2-2-2-2-2-2-2-2-2-|
|-3-3-3-3-3-3-3-3-3-3-3-3-3-3-5-5-5-5-5/6-5\3-3-3-3-3-3-3-3-3-3-3-3-|
|-------------------------------------------------------------------| [3x]
|-------------------------------------------------------------------|
|-------------------------------------------------------------------|
|-------------------------------------------------------------------|


|-2-2-2-2-2-2-2-2-2-2-2-2-2-2------------------|
|-3-3-3-3-3-3-3-3-3-3-3-3-3-3-5-5-5-5-5/6-5\3--|
|----------------------------------------------|
|----------------------------------------------|
|----------------------------------------------|
|----------------------------------------------|

|-----------------------------------------------------------------|****
|-----------------------------------------------------------------|
|-----------------------------------------------------------------|
|-4-4-4-4-4-4-4-4-4-4-4-4-4-4-4-4-3-3-3-3-3-3-3-3-2-2-2-2-3-3-3-3-| [2x]
|-5-5-5-5-5-5-5-5-5-5-5-5-5-5-5-5-4-4-4-4-4-4-4-4-3-3-3-3-4-4-4-4-|
|-----------------------------------------------------------------|
****If this doesn't sound right to you, try
                                           |-2----1----0-|
                                           |-3----2----1-|
                                           |-------------|
                                           |-------------|
                                           |-------------|
                                           |-------------|

|-2-------2---------------2---3/7-7\3-5/7--------|
|---3-5/8---3-5/8-5h6-5p3---3-------------7h8-10-|
|------------------------------------------------|
|------------------------------------------------|
|------------------------------------------------|
|------------------------------------------------|

|-2-------2---------------2---3/7-7\3-5/7---------|
|---3-5/8---3-5/8-5h6-5p3---3-------------7h8/10~-|
|-------------------------------------------------|
|-------------------------------------------------|
|-------------------------------------------------|

Well there ya be, it's pretty much perfect I think, I'm about 99.9999% sure
everything is right, except for maybe on a few parts, but if they sound wrong to you, 
couls probably easily figure out the right way based on what you have here. So here it is, 
it works for ya, and enjoy.

Lyrics:

It was the faulty foundation,
said the weeping eyes,
the architecture bent under pressure,
the architecture broke over lies


They said "it's just a trend, just a trend"
They said "it's just a phase, just a phase"
They said "it's just a trend, just a trend"
They said "it's just a phase, just a phase"
(It's the utter realism of the above stated facts,
that hit windows like a train,
and faces like an axe.
In the time it takes to pick up the phone
your cover is blown,
In the time it takes to pick up the phone
your cover is blown.)


They were right
They were right
Now every person in this building will give their fucking lives.
(Over, its over)


I am a burning building bringing everyone inside to the ground
(I am a burning building bringing everyone inside to the ground)

I am a burning building bringing everyone inside to the ground
(I am a burning building bringing everyone inside to the ground)

I am a burning building bringing everyone inside to the ground
(I am a burning building bringing everyone inside to the ground)

I am a burning building bringing everyone inside to the ground
(I am a burning building bringing everyone inside to the ground)

I am a burning building bringing everyone inside to the ground
I am a burning building bringing everyone inside to the ground
I am a burning building bringing everyone inside to the ground
I am a burning building bringing everyone inside to the ground

In the time it takes to make thing right
(In the time it takes to make thing right)

We'll have made new memories
(We'll have made new memories)

This feeling will have passed
(This feeling will have passed)

I'll have said goodbye
(I'll have said goodbye)

You'll have gone and went
(You'll have gone and went)

I'll have turned my back on the only meaning in the past
(I'll have turned my back on the only meaning in my past)

What destroys me
will have saved my life
we are gone,
we are gone...

I am a burning building bringing everyone inside to the ground,
I am a burning building bringing everyone inside to the ground.
Добавлено: 25.06.2012
Другие материалы по этой песне:

Страница создана 08.06.2012
http://primanota.ru/heavy-heavy-low-low/tragic-tragic-tragic-track-jacket-chords.htm
Привет, Гость.
Предлагаем пройти революционный курс по гитаре.
Подарок от PrimaNota.Ru, забирай!