PrimaNota.ru - самый крупный в мире бесплатный архив песенных текстов, аккордов, табулатур и нот


Heavy Heavy Low Low - Theres A Bat - текст песни, таба, видео

Регистрация Запомнить меня
Войти через:  Facebook Google Twitter Vk Yandex Mail.ru

Heavy Heavy Low Low - Theres A Bat - текст песни, таба, видео

Печатать
Просмотров: 181
-------------------------------------------------------------------------------
                             There's A Bat - Heavy Heavy Low Low
-------------------------------------------------------------------------------
Tabbed by: Rutger

I think i did an ok job with the few parts. This could be wrong, but it sounds right.

Tuning: drop d

Guitar 1
:43
e|------------------|
B|------------------|
G|------------------|
D|--0~--3-3/5\3-----|     x 8
A|--0~--3-3/5\3-----|
D|--0~--3-3/5\3-----|

:56
e|------------------|
B|------------------|
G|------------------|
D|--0~--3-3/5\3-----|   x 3
A|--0~--3-3/5\3-----|
D|--0~--3-3/5\3-----|

e|-------------|
B|-------------|
G|-------------|
D|--0~--3--5*--|
A|--0~--3------|
D|--0~--3------|

e|------------------|
B|------------------|
G|------------------|
D|--0~--3-3/5\3-----|   x 4
A|--0~--3-3/5\3-----|
D|--0~--3-3/5\3-----|


Guitar 2
:43
e|------------------|
B|------------------|
G|------------------|
D|--0~--3-3/5\3-----|     x 8
A|--0~--3-3/5\3-----|
D|--0~--3-3/5\3-----|

:56
e|-------------------------------------------------------------|
B|-------9/10\9--------10\9/10---------9/10\9--------9\8\7-----|
G|------12/13\12-------13\12/13-------12/13\12------12\11\10---|
D|--0~-------------0~-------------0~------------0~-------------|   X 2
A|--0~-------------0~-------------0~------------0~-------------|
D|--0~-------------0~-------------0~------------0~-------------|

| /  slide up
| \  slide down
| h  hammer-on
| p  pull-off
| ~  vibrato
| +  harmonic
| x  Mute note
==========================================
Добавлено: 31.03.2012
Другие материалы по этой песне:
  • Аккорды и текст

Страница создана 21.02.2012
http://primanota.ru/heavy-heavy-low-low/theres-a-bat-chords.htm
Привет, Гость.
Предлагаем пройти революционный курс по гитаре.
Подарок от PrimaNota.Ru, забирай!