PrimaNota.ru - самый крупный в мире бесплатный архив песенных текстов, аккордов, табулатур и нот


Heavy Heavy Low Low - Kids Kids Kids - текст песни, таба, видео

Регистрация Запомнить меня
Войти через:  Facebook Google Twitter Vk Yandex Mail.ru

Heavy Heavy Low Low - Kids Kids Kids - текст песни, таба, видео

Печатать
Просмотров: 189
Artist: Heavy Heavy Low Low
Song: "Kids Kids Kids"
Album: Courtside Seats (also featured on the "Kids Kids Kids EP")
Label: Twelve Gauge Records

Official Website: http://www.heavylow.com/
MySpace Page: http://www.myspace.com/heavyheavylowlow
Record Label: http://www.twelvegaugehc.com/

Drop D Tuning: DADGBE

[Intro: 0:00 - 0:12]

------------------------------------------------------------------|
--------------------------------------------------------[x4]------|
--------------10--------------------------------------------------|
---------11------11---11-----11---10h11p10------------------------|
-----9-9----9-------9----9-9----9----------11---------------------|
------------------------------------------------------------------|
PM:  - -    -       -    - -    -


Part I [0:13 - 0:24]
------------------------------------------------------------------|
----------------------------------------------[x3]----------------|
-------------------------6-6-6-6-6-6-6-6--------------------------|
-----0-0-0-0---0-0-0-0---x-x-x-x-x-x-x-x--------------------------|
-----0-0-0-0---0-0-0-0---8-8-8-8-8-8-8-8--------------------------|
-----0-0-0-0---0-0-0-0--------------------------------------------|
PM:  - - - -   - - - -


Part II [0:24 - 0:36]
-|------------------|---------------------------------------------|
-|------------------|----------------------------------------[x8]-|
-|------------------|--6-6-6-6--3-3-3-3--5-5-5-5-5-5-5-5----------|
-|-0-0-0-0--0-0-0-0-|--x-x-x-x--x-x-x-x--x-x-x-x-x-x-x-x----------|
-|-0-0-0-0--0-0-0-0-|--8-8-8-8--5-5-5-5--7-7-7-7-7-7-7-7----------|
-|-0-0-0-0--0-0-0-0-|---------------------------------------------|
PM:- - - -  - - - -


Part III [0:36 - 0:51]
------------------------------------------------------------------|
---------------------------------------[x4]-----------------------|
----5-6-5-5-------5-6-5-5-----------------------------------------|
----x-x-x-x--0-0--x-x-x-x--0--------------------------------------|
----7-8-7-7--0-0--7-8-7-7--0--------------------------------------|
-------------0-0-----------0--------------------------------------|
PM:          -             -


Part IV [0:51 - 1:07]
------------------------------------------------------------------|
-----------------------[X8]---------------------------------------|
-------13-13-13-13------------------------------------------------|
----0---x--x--x--x------------------------------------------------|
----0--15-15-15-15------------------------------------------------|
----0-------------------------------------------------------------|
PM:


Breakdown [1:07 - 1:32]
---|---------------------|------12--------12----------------|------|
---|----------------[x8]-|------15--------15\16--------[x8]-|------|
---|---------------------|----------------------------------|------|
---|-0-0---0-0-0---------|-0-0-----0-0-0--------------------|------|
---|-0-0---0-0-0---------|-0-0-----0-0-0--------------------|------|
---|-0-0---0-0-0---------|-0-0-----0-0-0--------------------|------|
PM:  - -   - - -           - -     - - -


Outro [1:32 - 1:40]
----------------------|---|---------------------------------------|
---------------[x4]---|---|---------------------------------------|
----------------------|---|---------------------------------------|
---0-0-1-0-0-1--------|-0-|---------------------------------------|
---0-0-1-0-0-1--------|-0-|---------------------------------------|
---0-0-1-0-0-1--------|-0-|---------------------------------------|
PM:- - - - - -          -
Добавлено: 30.07.2012
Другие материалы по этой песне:

Страница создана 24.02.2012
http://primanota.ru/heavy-heavy-low-low/kids-kids-kids-chords.htm
Привет, Гость.
Предлагаем пройти революционный курс по гитаре.
Подарок от PrimaNota.Ru, забирай!