PrimaNota.ru - самый крупный в мире бесплатный архив песенных текстов, аккордов, табулатур и нот


Heavy Heavy Low Low - Inhalent Abuse - таба, видео

Регистрация Запомнить меня
Войти через:  Facebook Google Twitter Vk Yandex Mail.ru

Heavy Heavy Low Low - Inhalent Abuse - таба, видео

Печатать
Просмотров: 149
|----------------|
|----------------|
|----------------|  4x
|--9--8-9-8-9-4--|
|----------------|
|----------------|

|------------------------------------------------------------|
|------------------------------------------------------------|
|------------------------------------------------------------|
|-5~-5--5-5-5--5-5-5--5-5-5--5-5-5-5-5-5-5-5-5-5-5-5-5-5-5-5-|
|-5~-5--5-5-5--5-5-5--5-5-5--5-5-5-5-5-5-5-5-5-5-5-5-5-5-5-5-|
|-5~-5--5-5-5--5-5-5--5-5-5--5-5-5-5-5-5-5-5-5-5-5-5-5-5-5-5-|

|----------------|
|----------------|
|----------------|  4x
|--9--8-9-8-9-4--|
|----------------|
|----------------|


|-------------------|
|-------------------|
|-------------------|
|-10-10-10-10-10-10-|
|-------------------|
|-------------------|

|----------------|
|----------------|
|--------------3-|
|-5-5-4-5--------|  3x
|---------4-5----|
|----------------|


|---------------------------------|
|---------------------------------|
|---------------------------------|
|-5-4-5-6-5-4-5-4-5-4-5-6-5-4-5-4-|
|-5-4-5-6-5-4-5-4-5-4-5-6-5-4-5-4-|
|-5-4-5-6-5-4-5-4-5-4-5-6-5-4-5-4-|


|----------------|
|----------------|
|--------------3-|
|-5-5-4-5--------|  7x
|---------4-5----|
|----------------|


|-----------||---------------------|
|-----------||---------------------|
|-----------||---------------------|
|-5-4-5-6-5-||-5-4-5-6-5-----------|
|-5-4-5-6-5-||-5-4-5-6-5-----------|
|-5-4-5-6-5-||-5-4-5-6-5---0-0--0-0|


|--------------|
|--------------|
|--------------|
|-5-4-5-6-7~---|
|-5-4-5-6-7~---|
|-5-4-5-6-7~---|


|---------------------|
|---------------------|
|---------------------|
|-5-4-5-6-5-----------|
|-5-4-5-6-5-----------|
|-5-4-5-6-5---0-0--0-0|


|--------------|
|--------------|
|--------------|
|-5-4-5-6-7~---|
|-5-4-5-6-7~---|
|-5-4-5-6-7~---|


|---------------------|
|---------------------|
|---------------------|
|-5-4-5-6-5-----------|
|-5-4-5-6-5-----------|
|-5-4-5-6-5---0-0--0-0|


|--------------|
|--------------|
|--------------|
|-5-4-5-6-7~---|
|-5-4-5-6-7~---|
|-5-4-5-6-7~---|



|-------------||---------------------------|
|-------------||---------------------------|
|-------------||---------------------------| 4x
|-------------||---------------------------|
|-5~-5~-5~-5~-||-5-5-5-13-5-5"-5-13-5-5-13-|
|-5~-5~-5~-5~-||-5-5-5-13-5-5"-5-13-5-5-13-|

This is my first tab but its a really good song I'm pretty sure its right but I can't 
out the slides toward the end and some parts MIGHT be wrong but i dont think so so if u 
any corrections or figure out that slide, please send that to me.
Добавлено: 31.07.2012
Другие материалы по этой песне:
  • Аккорды и текст

Страница создана 11.03.2012
http://primanota.ru/heavy-heavy-low-low/inhalent-abuse-chords.htm
Привет, Гость.
Предлагаем пройти революционный курс по гитаре.
Подарок от PrimaNota.Ru, забирай!