PrimaNota.ru - самый крупный в мире бесплатный архив песенных текстов, аккордов, табулатур и нот


Heavy Heavy Low Low - I Forgot 2 And A Half Days - текст песни, бас-таба, видео

Регистрация Запомнить меня
Войти через:  Facebook Google Twitter Vk Yandex Mail.ru

Heavy Heavy Low Low - I Forgot 2 And A Half Days - текст песни, бас-таба, видео

Печатать
Просмотров: 144
INTRO//VERSE
--------------------------|
--------------------------|
--------------------------|
-0(as many times)999------|

----------------------------|
----------------------------|
----------------------------|
-0(same as part1)5--3--4--2-|

--------------------------------------|
--------------------------------------|
--------------------------------------|
0---0---0---9-9-9---0---0---0---7-7-7-|

-----------------------------------|
-----------------------------------|
-----------------------------------|
-5--3--4--2-(x2)---2---------------|(as many times)

----------------------------------|
----------------------------------|
-------------------8-7-5--8-7-5---|
-2(as many times)-----------------|

-------------------------------------|
-------------------------------------|
-------------------10-9-7--10-9-7----|
-4(as many tmes)---------------------|

-------------------------------------|
-------------------------------------|
-------------------12-11-9--12-11-9--|(X2)
-6(as many times)--------------------|

----------------------------------|
----------------------------------|
----------------------------------|
-5(slide up)-10(slide up)---------|

---------------------------------------------|
---------------------------------------------|
---------------------------------------------|
-10(slide down)-10(slide down)-5(slide down)-|

-------------|
-------------|
-------------|
---5---------|

--------------------------------------|
--------------------------------------|
--------------------------------------|
-5~-0----5~-0--1-0-1/0---5~-0----5~-0-|

------------------------------|
------------------------------|
------------------------------|
--10(slide down)-5(slide up)--|

--------------------------|
--------------------------|
-0-9-11-12---0-0-9-11-12--|
--------------------------|
                                  (x4)
--------------------------|
--------------------------|
-0-9-10-9---0-0-9-9-8-----|
--------------------------|

--------------------------|
--------------------------|
--------------------------|
-0-9-11-12---0-0-9-11-12--|
                                   (x2)
--------------------------|
--------------------------|
--------------------------|
-0-9-10-9---0-0-9-9-8-----|

--------------------|
--------------------|
--------------------|
-5---4---3---2------|

BREAKDOWN
--------------------------|
--------------------------|
--------------------------|
-0-9-11-12---0-0-9-11-12--|
                                   (x2)

--------------------------|
--------------------------|
--------------------------|
-0-9-10-9---0-0-9-9-8-----|

End
This is my first Tab.Enjoy!And tuning ahould be correct,if it doesnt sound right.Try Drop C(CGCF).
Добавлено: 20.03.2012
Другие материалы по этой песне:
  • Аккорды и текст

Страница создана 20.03.2012
http://primanota.ru/heavy-heavy-low-low/i-forgot-2-and-a-half-days-chords.htm
Привет, Гость.
Предлагаем пройти революционный курс по гитаре.
Подарок от PrimaNota.Ru, забирай!