PrimaNota.ru - самый крупный в мире бесплатный архив песенных текстов, аккордов, табулатур и нот


Heavy Heavy Low Low - Hdeye Hybrid Cyborg - таба, видео

Регистрация Запомнить меня
Войти через:  Facebook Google Twitter Vk Yandex Mail.ru

Heavy Heavy Low Low - Hdeye Hybrid Cyborg - таба, видео

Печатать
Просмотров: 99
HDEYE Hybrid Cyborg
HeavyHeavyLowLow
Turtle Nipple and The Toxic Shock
Tabbed by: Patrick V
porkfriedrice222@yahoo.com for any questions

oh and.

/= Slide up the neck
\= Slide down the neck
It's late, I'm not sure if I used the correct tab symbols.


|-----------------------  |-----------------------------|
|77--------------7-77---  |77---------7-77--------------|
|77--------------7-77---  |77----5h7--7-77--------------|
|77-444-555-666--7-77---  |77-5h7-----7-77--------------|
|55--------------5-55---  |55---------5-55--------------|
|-----------------------  |-----------------------------|
    ... ... ...            2nd guitar
|--8--------------------------------------|
|5-8--------------------------------------|
|5-5--------------------------------------|
|5-5--------------------------------------|
|-----------------------------------------|
|-----------------------------------------|
Up-down strum these chords
Follow the song. I can't be bothered to tab out
The same chord over and over again.

|--------------------------------5--------|
|7-------7----------7-------7----------7--|
|7--5-77-7--5-777p5-7--5-77-7--5---7-5-7--|
|7-7-----7-7--------7-7-----7-7--------7--|
|5-------5----------7-------5----------5--|
|-----------------------------------------|

|------------|-----------------------------|
|------------|5-6-7-8-12/------------------|
|------------|5-6-7-8-12/------------------|
|----------5\|-----------------------------|
|5-88888-5---|-----------------------------|
|------------|-----------------------------|
 . ..... .
|-----------------------------------------|
|9--99--9--99-----------------------------|
|9--99--9--99-----------------------------|
|9--99--9--99-----------------------------|
|-----------------------------------------|
|-----------------------------------------|

|-----------------------------------------|
|-----------------------------------------|
|11--11-11-11\9/11\9/11\9-----------------|
|x---x--x--x-\x/x-\x/x-\x-----------------|
|9---9--9--9-\7/9-\7/9-\7-----------------|
|-----------------------------------------|

|-----------------------------------------|
|-----------------------------------------|
|11--11-11-11\9/11\9/12\9-----------------|
|x---x--x--x-\x/x-\x/x-\x-----------------|
|9---9--9--9-\7/9-\7/10\7-----------------|
|-----------------------------------------|

....
Fuck.
Ha. HHLL=Sex
Have fun.
Добавлено: 14.04.2012
Другие материалы по этой песне:
  • Аккорды и текст

Страница создана 14.04.2012
http://primanota.ru/heavy-heavy-low-low/hdeye-hybrid-cyborg-chords.htm
Привет, Гость.
Предлагаем пройти революционный курс по гитаре.
Подарок от PrimaNota.Ru, забирай!