PrimaNota.ru - самый крупный в мире бесплатный архив песенных текстов, аккордов, табулатур и нот


Heavy Heavy Low Low - Asvln - таба, видео

Регистрация Запомнить меня
Войти через:  Facebook Google Twitter Vk Yandex Mail.ru

Heavy Heavy Low Low - Asvln - таба, видео

Печатать
Просмотров: 141
-------------------------------------------------------------------------------
                             A,S,V,L,N - Heavy Heavy Low Low 
-------------------------------------------------------------------------------
Tabbed by: Bill
Email: HTDisHXC@netscape.net

Tuning: Dropped D

yeah this is what i could gather, it's a little more than half the song.

Intro
e|---------------------------------------------------------------------------|
B|---------------------------------------------------------------------------|
G|7-0-0-8-0-0-7-0-0-6-0-0---------7-0-0-8-0-0-7-0-0-6-0-0--------------------|
D|---------------------------------------------------------------------------|
A|------------------------7-8-6-7-------------------------7-8-6-7-5-6--------|
D|------------------------7-8-6-7-------------------------7-8-6-7-5-6--------|
                        PM_______                       PM___________
4x
e|---------------------------------------------------------------------------|
B|---------------------------------------------------------------------------|
G|---------------------------------------------------------------------------|
D|7--6--0--10------------7--6--0--10-----------------------------------------|
A|-------------6p5--6-*---------------6p5-6p5--------------------------------|
D|---------------------------------------------------------------------------|

2x
e|---------------------------------------------------------------------------|
B|---------------------------------------------------------------------------|
G|---------------------------------------------------------------------------|
D|---------------------------------------------------------------------------|
A|3--2--3----3b----3--2--3---------------------------------------------------|
D|3--2--3----------3--2--3---------------------------------------------------|
PM_______   A.H.  PM______

4x
e|---------------------------------------------------------------------------|
B|---------------------------------------------------------------------------|
G|---------------------------------------------------------------------------|
D|7--6--0--10------------7--6--0--10-----------------------------------------|
A|-------------6p5--6-*---------------6p5-6p5--------------------------------|
D|---------------------------------------------------------------------------|

6x
e|---------------------------------------------------------------------------|
B|---------------------------------------------------------------------------|
G|---------------------------------------------------------------------------|
D|---------------------------------------------------------------------------|
A|3--2--3----3b----3--2--3---------------------------------------------------|
D|3--2--3----------3--2--3---------------------------------------------------|
PM_______   A.H.  PM______

2x
e|---------------------------------------------------------------------------|
B|---------------------------------------------------------------------------|
G|---------------------------------------------------------------------------|
D|0~-------------------------------------------------------------------------|
A|0~-------------------------------------------------------------------------|
D|0~-------------------------------------------------------------------------|

^^ bunch of times you'll get the idea


| /  slide up
| \  slide down
| h  hammer-on
| p  pull-off
| ~  vibrato
| +  harmonic
| x  Mute note
===============================================================================
Добавлено: 21.04.2012
Другие материалы по этой песне:
  • Аккорды и текст

Страница создана 10.03.2012
http://primanota.ru/heavy-heavy-low-low/asvln-chords.htm
Привет, Гость.
Предлагаем пройти революционный курс по гитаре.
Подарок от PrimaNota.Ru, забирай!