PrimaNota.ru - самый крупный в мире бесплатный архив песенных текстов, аккордов, табулатур и нот


Heavens - Watching You - текст песни, таба, видео

Регистрация Запомнить меня
Войти через:  Facebook Google Twitter Vk Yandex Mail.ru

Heavens - Watching You - текст песни, таба, видео

Печатать
Просмотров: 211
Artist: Heavens
Song: Watching You
Album: Patent Pending
Tabbed by: Anthony D. (Anonymous Usual)
Abbreviations:
	P= Pull Off
	H= Hammer On
	/= Slide
        ~= Pick quickly

Well, this is the first tab I've ever made, but I'm around 99.99% sure this is all right 
the electronics, and effects a guitar can't do), so I hope it goes over well. Enjoy!

Intro
=======================================================================
       Intro Riff 1                               Intro Riff 2
e::-----------------              --------------------------------|
B::--6-8-6-10-------              ------6-8-6-10------------------|
G::--7-7-7--7-------              ------7-7-7--7------------------|
D::-----------------  X2          --------------------------------|  X4
A::-----------------              --------------------------------|
E::-----------------              --------------------------------|
       (Quietly)

Play this little riff behind “Intro Riff 2” (For convenience, we'll call this the 
Riff”)
e::--------------------------------|
B::--------------------------------|
G::--7-5-7-5-7-7-8-5---------------|
D::--------------------------------|
A::--------------------------------|
E::--------------------------------|

Verse 1
=======================================================================
e::---------------------------------------------------|
B::---------------------------------------------------|
G::---------------------------------------------------|
D::------7------7h8p7---5------7-------7--------------| X2
A::---5-----5--------------8-------8-------8----------|
E::---------------------------------------------------|

Bridge
=======================================================================
e::-----------------------       -----------------------------|
B::-----------------------       -----------------------------|
G::-----------------------       -----------------------------|
D::---10-----10---10------  X7   -----10-----10/12------------|
A::-8----8-7----7----7-7--       -7-7----8-7------------------|
E::-----------------------       -----------------------------|

Chorus
=======================================================================
e::-----------------------      -------------------|
B::-----------------------      -------------------|
G::-----------------------      -------------------|
D::-12-10-10-10-12-10-12--  X3  --12-10-10---------|
A::-12----12--------------      --12----12-7-8-----|
E::-----------------------      -------------------|

Then “Intro 2” with “Background Riff” X4

Verse 2
=======================================================================
e::-------------------------------------------------------------------------|
B::-------------------------------------------------------------------------|
G::-------------------------------------------------------------------------|
D::--10-7-----7h8p7-5---7---7------7---7h8p7-5---7---7----------------------|
A::-------5-8---------8---8---8--5---5---------8---8---8--------------------|
E::-------------------------------------------------------------------------|

Then “Intro 2” with “Background Riff” X4

Then the “Chorus”

Solo
=======================================================================
e::-------------------------------------------------------------------------|
B::--6-6-6-6----------------------------------------------------------------|
G::--7-7-7-7----7~----5~----10--9--10--12--10--9--14--12--10--9-------------|
D::-------------------------------------------------------------------------|
A::-------------------------------------------------------------------------|
E::-------------------------------------------------------------------------|

Then play the “Intro 2”, “Background Riff”, and “Solo” (Listen for the change-ups in riffs)

“Chorus”, then play…

Outro
=======================================================================
e::--------------------------|
B::--------------------------|
G::--------------------------|
D::--12-10-10----------------|
A::----------10---7-8--------|
E::--------------------------|

And there it is! Cool, huh?
Добавлено: 01.07.2012
Другие материалы по этой песне:
  • Аккорды и текст

Страница создана 30.03.2012
http://primanota.ru/heavens/watching-you-chords.htm
Привет, Гость.
Предлагаем пройти революционный курс по гитаре.
Подарок от PrimaNota.Ru, забирай!