PrimaNota.ru - самый крупный в мире бесплатный архив песенных текстов, аккордов, табулатур и нот


Heavens - Leave - текст песни, таба, видео

Регистрация Запомнить меня
Войти через:  Facebook Google Twitter Vk Yandex Mail.ru

Heavens - Leave - текст песни, таба, видео

Печатать
Просмотров: 136
Hey guys, this is a great song by heavens. I was just sitting there and tabbed this by
and it may not be correct to its fullest in the chorus,
but I think this tab is a good start for this song. Be easy as well its my first tab
I've written out, anyway enjoy. Simple tab ;D

Song:Leave
Artist: Heavens
Tabbed by : Mike Langiewicz


---------------|
---------------|
---------------|
---------------|   x Listen for times done 0:01-:008
4-4-4-4-4-4-4-4|
---------------|

Verse Riff


-----------------------------------------------------------------------|
-----------------------------------------------------------------------|
-----------------------------------------------------------------------|
-2-2-2-2-2-2-2-2-------------------------------------7-7-7-7-7-7-7-7---|  x4
-----------------4-4-4-4-4-4-4-4/-11-11-11-11-9-9-9-9------------------|
-----------------------------------------------------------------------|


               Chorus   x4
(Listen for rythm, up down strumming)

----5-5-5-5-5-5-5-     -----------------------------------------------|
----5-5-5-5-5-5-5-     -----------------------------------------------|
----6-6-6-6-6-6-6-x2    -----9--9--9--9--9--9--9---8--8--8--8--8--8--9|
----7-7-7-7-7-7-7-      ----11-11-11-11-11-11-11--11-11-11-11-11-11-11|
------------------      ----------------------------------------------|
------------------      ----------------------------------------------|

Verse Riff


-----------------------------------------------------------------------|
-----------------------------------------------------------------------|
-----------------------------------------------------------------------|
-2-2-2-2-2-2-2-2--------------------------------------7-7-7-7-7-7-7---|  x4
-----------------4-4-4-4-4-4-4-4/-11-11-11-11-9-9-9-9------------------|
-----------------------------------------------------------------------|



               Chorus   x4
(Listen for rythm, up down strumming)

----5-5-5-5-5-5-5-     -----------------------------------------------|
----5-5-5-5-5-5-5-     -----------------------------------------------|
----6-6-6-6-6-6-6-x2    -----9--9--9--9--9--9--9---8--8--8--8--8--8--9|
----7-7-7-7-7-7-7-      ----11-11-11-11-11-11-11--11-11-11-11-11-11-11|
------------------      ----------------------------------------------|
------------------      ----------------------------------------------|




Verse Riff


-----------------------------------------------------------------------|
-----------------------------------------------------------------------|
-----------------------------------------------------------------------|
-2-2-2-2-2-2-2-2-------------------------------------7-7-7-7-7-7-7-7---|  x4
-----------------4-4-4-4-4-4-4-4/-11-11-11-11-9-9-9-9------------------|
-----------------------------------------------------------------------|

-Dramatic Pause-

               Chorus   x4
(Listen for rythm, up down strumming)

----5-5-5-5-5-5-5-     -----------------------------------------------|
----5-5-5-5-5-5-5-     -----------------------------------------------|
----6-6-6-6-6-6-6-x2    -----9--9--9--9--9--9--9---8--8--8--8--8--8--9|
----7-7-7-7-7-7-7-      ----11-11-11-11-11-11-11--11-11-11-11-11-11-11|
------------------      ----------------------------------------------|
------------------      ----------------------------------------------|

Any comments or corrections, email me at sun.dials@hotmail.com
Добавлено: 11.04.2012
Другие материалы по этой песне:
  • Аккорды и текст

Страница создана 11.04.2012
http://primanota.ru/heavens/leave-chords.htm
Привет, Гость.
Предлагаем пройти революционный курс по гитаре.
Подарок от PrimaNota.Ru, забирай!