PrimaNota.ru - самый крупный в мире бесплатный архив песенных текстов, аккордов, табулатур и нот


Heavens - Gardens - текст песни, таба, видео

Регистрация Запомнить меня
Войти через:  Facebook Google Twitter Vk Yandex Mail.ru

Heavens - Gardens - текст песни, таба, видео

Печатать
Просмотров: 178
Gardens

                        Intro/Verse
                      ||--------------------||
  Bass Intro/Verse    ||:------------------:||
||--------------------||--------------------||
||:-7-7-7-7-7-7-7----:||---77--77--77--77---||
||:-0000000000000-00-:||:--00--00--00--00--:||
||--5555555555555/88--||--------------------||


verse
------------------------------------------------------------------|
---------0---1----------0---1-------------------------------------|
---2---------------2---------------7----5-----9----9----9-------9-|
2----2-----2-----2----2---2----2/5----3----77---77---77---7-10----|
-------------------------------------------00---00---00---0--0----|
------------------------------------------------------------------|


Verse …G. 0. D….
------------------------------------|
------------------------------------|
------let---------------------------|
---7--ring--------------------------|
-0----------------------------------|
------------------------------------|


verse
||----------------------||
||:--------------------:||
||----------------------||
||---77--77--77--77-----||
||:--00--00--00--00-0--:||
||------------------8---||


verse
---------------------------------------------------------|
---------0---1----------0---1---------------------0---1--|
---2---------------2---------------7----5----2-----------|
2----2-----2-----2----2---2----2/5----3----2---2----2----|
---------------------------------------------------------|
---------------------------------------------------------|



verse
------------------------------------------------------------------|
---------0---1----------0---1-------------------------------------|
---2---------------2---------------7----5-----9----9----9----9----|
2----2-----2-----2----2---2----2/5----3----77---77---77---77------|
-------------------------------------------00---00---00---00------|
------------------------------------------------------------------|




UNDER SOLO
||--------------------||
||:------------------:||
||--------------------||
||---77--77--77--77---||
||:--00--00--00--00--:||
||--------------------||


SOLO
-----12----15-15----12-------12-12-12--x-12----15-15----12---|
-----13----16-16----13-------13-13-13--x-13----16-16----13---|
--14-14----17-17--X-14-------14-14-14-14-14----17-17--X-14---|
-------------------------------------------------------------|
-------------------------------------------------------------|
-------------------------------------------------------------|


SOLO
|---15--x-15--x-15--x-15--x---|--15-12-12-15/17-17------------------|
|:--13-13-13-13-13-13-13-15--:|-------------------------------------|
|-----------------------------|-------------------------------------|
|-----------------------------|-------------------------------------|
|:---------------------------:|-------------------------------------|
|-----------------------------|-------------------------------------|



verse
---------------------------------------------------------|
---------0---1----------0---1---------------------0---1--|
---2---------------2---------------7----5----2-----------|
2----2-----2-----2----2---2----2/5----3----2---2----2----|
---------------------------------------------------------|
---------------------------------------------------------|



verse
------------------------------------------------------------------|
---------0---1----------0---1-------------------------------------|
---2---------------2---------------7----5-----9----9----9----9----|
2----2-----2-----2----2---2----2/5----3----77---77---77---77------|
-------------------------------------------00---00---00---00------|
------------------------------------------------------------------|



interlude
|-------------------------------------|-----------------|
|:-----------------------------------:|-----------------|
|-------------------------------------|-----------------|
|---11-11-11-11-11-11-11--4-55--------|----11--let------|
|:---0--0--0--0--0--0--0--0-00-0000--:|-----0--ring-----|
|-------------------------------------|--------out------|
Добавлено: 20.07.2012
Другие материалы по этой песне:
  • Аккорды и текст

Страница создана 28.05.2012
http://primanota.ru/heavens/gardens-chords.htm
Привет, Гость.
Предлагаем пройти революционный курс по гитаре.
Подарок от PrimaNota.Ru, забирай!