PrimaNota.ru - самый крупный в мире бесплатный архив песенных текстов, аккордов, табулатур и нот


Heavens - Counting - текст песни, таба, бас-таба, видео

Регистрация Запомнить меня
Войти через:  Facebook Google Twitter Vk Yandex Mail.ru

Heavens - Counting - текст песни, таба, бас-таба, видео

Печатать
Просмотров: 265
-------------------------------------------------------------------------------
                              COUNTING - Heavens
-------------------------------------------------------------------------------
Tabbed by: Notoriousdoc
Email: notoriousdoc99@hotmail.co.uk

Tuning: Standard

Cool song, I'm pretty sure this is all right. Work out the rhythm yourselves.

Intro/Outro
e|---------------------------------------|
B|---------------------------------------|
G|-8888888888888888888888888888-77777777-|
D|---------------------------------------|
A|---------------------------------------|
E|---------------------------------------|

Verse
e|--------------------------------------------|
B|-5555555---5555555-6-5555555---5555-8-6-5-6-|
G|---------5-------------------5--------------|
D|--------------------------------------------|
A|--------------------------------------------|
E|--------------------------------------------|

e|------------------------------------------|
B|-5555555-6-5555555---5555555-6--5555-8888-|
G|-------------------5----------------------|
D|------------------------------------------|
A|------------------------------------------|
E|------------------------------------------|

Bridge
e|-------------------|
B|----------------88-|
G|-------------------|
D|---7--7--7--7------|
A|--7--7--7--7--7----|
E|-5--5--5--5--5-----|

Verse 2
e|-------------|
B|-5~-3~-5~-5~-|
G|-------------|
D|-------------|
A|-------------|
E|-------------|

Chorus
e|------------------------------------------------------------------|
B|-8888888-6-5-6-5---8888888-6-5-6-5~-8888888-6-5-6-5---------------|
G|-----------------5----------------------------------5-4-5-7-5-4-5-|
D|------------------------------------------------------------------|
A|------------------------------------------------------------------|
E|------------------------------------------------------------------|

End on
B|-5-|

SONGFLOW

Intro   x2
Verse   x4
Bridge  x4
Intro   x2
Verse   x2
Bridge  x4
Chorus  x2
Intro   x2
Verse 2 x1
Bridge  x4
Chorus  x2
Outro   x4
Добавлено: 03.05.2012
Другие материалы по этой песне:

Страница создана 18.03.2012
http://primanota.ru/heavens/counting-chords.htm
Привет, Гость.
Предлагаем пройти революционный курс по гитаре.
Подарок от PrimaNota.Ru, забирай!