PrimaNota.ru - самый крупный в мире бесплатный архив песенных текстов, аккордов, табулатур и нот


Heavenly - Sign Of The Winner - текст песни, таба, видео

Регистрация Запомнить меня
Войти через:  Facebook Google Twitter Vk Yandex Mail.ru

Heavenly - Sign Of The Winner - текст песни, таба, видео

Печатать
Просмотров: 180
Авторы музыки: Ben Sotto

-----------------------------------------------------------------------------
                             Sign of the winner - Heavenly
-----------------------------------------------------------------------------
Tabbed by:  Mägges
Email:      

Tuning: EADGBe

Intro Riff 1
e|-------------------------------------------------------------------------|
B|----12-12----------12-13-12----------------------------------------------|
G|---------14-12-14---------------11-12--14-12-11-14-12--14----------------|
D|14---------------------------14------------------------------------------|
A|-----------------------------------------------------------------------14|
E|-------------------------------------------------------------------------|


e|--------------------------------12---------------------12----------------|
B|----12-12----------12-13-12---------15-13-15-12--13-15-------------------|
G|---------14-12-14--------------------------------------------------------|
D|14---------------------------14------------------------------------------|
A|-------------------------------------------------------------------------|
E|-------------------------------------------------------------------------|

Riff 2

e|-----------------|
B|-----------------|
G|-----------------|
D|2--2-2--2--2-2-2-|
A|2--2-2--2--2-2-2-|
E|0--0-0--0--0-0-0-|

Verse 1

E         D  
Sun be my guide
        G         C            D
Can you see where is the right side ?
E
In my quest
               D
Which feels so hard
          G
I heard a voice
C               D
Coming from the sky
   

Bridge 

C
Passing through the storm
E
And find your land
C
You have to be proud
            E        C  D
Follow your way


CHorus

E
It comes the wind

And the rain on my way
        C                          D
But the sun has never shown me its light
E
This kind of fear gives me force in my head
     C                    D     E
The sign of the winner is in my eyes


Riff 2

Verse 2 

Bridge

Chorus

Solo   I'm unsure how he plays it, but the break goes like this

Break (ab 2:30)

                         
e|-------------------------------|-----------------------------------------|
B|-------------------------------|-----------------------------------------|
G|o-12-11---------12-11---------o|-11b12p11--------11b12p11----------------|
D|o--------12-14---------12-14--o|----------12h14-----------12h14----------|
A|-------------------------------|-----------------------------------------|
E|-------------------------------|-----------------------------------------|

                              
2 times

e|-------------------------------|-----------------------------------------|
B|-------------------------------|-----------------------------------------|
G|o-12-11---------12-11---------o|-11b12p11--------11b12p11----------------|
D|o--------12-14---------12-14--o|----------12h14-----------12h14----------|
A|-------------------------------|-----------------------------------------|
E|-------------------------------|-----------------------------------------|
  Wings of destiny follow the wind
  Wind of destiny follow your dreams

Solo2
 
Intro Riff1

Chorus 2 times









************************************

| /   slide up
| \   slide down
| h   hammer-on
| p   pull-off
| ~   vibrato
| +   harmonic
| x   Mute note
| b   Bend
| pb  Pre-bend
| br  Bend release
| pbr Pre-bend release
| brb Bend release bend

************************************
Добавлено: 09.03.2012
Другие материалы по этой песне:
  • Аккорды и текст

Страница создана 09.03.2012
http://primanota.ru/heavenly/sign-of-the-winner-chords.htm
Привет, Гость.
Предлагаем пройти революционный курс по гитаре.
Подарок от PrimaNota.Ru, забирай!