PrimaNota.ru - самый крупный в мире бесплатный архив песенных текстов, аккордов, табулатур и нот


Heavenly - Evo - таба, видео

Регистрация Запомнить меня
Войти через:  Facebook Google Twitter Vk Yandex Mail.ru

Heavenly - Evo - таба, видео

Печатать
Просмотров: 141
Please rate well!
i did this tab cause there were no tabs for it
-Lucas :D

Intro
E--------------------------|
B--------------------------|
G----------9--12-11-7--9---|  (Hold last chord)
D----------9--12-11-7--9---|
A----------7--10-9--5--7---|
E---0-0-0--0--0--0--0--0---|

Main 4/4 Riff
( E---------------------------------------------------------------|
( B---------------------------------------------------------------|
( G-------------------------------------------------------------9-|
( D-------5-7-9--5--7-----5-----------------5-7-9--5--7--10--9----|
( A--7-7---------------9----9-7-5------7-7------------------------|
( E---------------------------------------------------------------|

E--------------------------------------------------------------- )
B--------------------------------------------------------------- )
G--------------------------------------------------------------- )x2
D-------5-7-9--5--7-----5------------------------------9--5--4-- )
A--7-7---------------9----9-7-5--10-9-7-10-9-7-4-7-5------------ )
E------------------------------------------------------7--3--2-- )

Verse 1

E--------------------------------------------------------------------|
B--------------------------------------------------------------------|
G--------------------------------------------------------------------|
D--------------------------------------------------------------------| x4
A--------------------------------------------------------------------|
E--0-0-0-0-0-0-0-0-0-0-0-0-0-0-0-0-0-0-0-0-0-0-0-0-0-0-0-0-0-0-0-0-0-|
P.M* * * * * * * * * * * * * * * * * * * * * * * * * * * * * * * * *

E--------------------------------------------------------------------|
B--------------------------------------------------------------------|
G--------------------------------------------------------------------|
D--------------------------------------------------------------------|
A--------------------------------------------------------------------|
E--8-8-8-8-8-8-8-8-8-8-8-8-8-8-8-8-8-0-0-0-0-0-0-0-0-0-0-0-0-0-0-0-0-|
P.M* * * * * * * * * * * * * * * * * * * * * * * * * * * * * * * * *

E--------------------------------------------------------------------|
B--------------------------------------------------------------------|
G--------------------------------------------------------------------|
D--------------------------------------------------------------------|
A--------------------------------------------------------------------|
E--8-8-8-8-8-8-8-8-8-8-8-8-8-8-8-8-8-7-7-7-7-7-7-7-7-5-5-5-5-5-5-5-5-|
P.M* * * * * * * * * * * * * * * * * * * * * * * * * * * * * * * * *

E--------------------------------------------------------------------|
B--------------------------------------------------------------------|
G--------------------------------------------------------------------|
D--------------------------------------------------------------------|
A--------------------------------------------------------------------|
E--8-8-8-8-8-8-8-8-8-8-8-8-8-8-8-8-8-0-0-0-0-0-0-0-0-0-0-0-0-0-0-0-0-|
P.M* * * * * * * * * * * * * * * * * * * * * * * * * * * * * * * * *

E--------------------------------- |
B--------------------------------- |
G--------------------------------- |
D--------------------------------2 |
A--------------------------------2 |
E--3-3-3-3-3-3-3-3-2-2-2-2-2-2-2-0 |
P.M* * * * * * * * * * * * * * *
Main 4/4 Riff Again

( E---------------------------------------------------------------|
( B---------------------------------------------------------------|
( G-------------------------------------------------------------9-|
( D-------5-7-9--5--7-----5-----------------5-7-9--5--7--10--9----|
( A--7-7---------------9----9-7-5------7-7------------------------|
( E---------------------------------------------------------------|

E--------------------------------------------------------------- )
B--------------------------------------------------------------- )
G--------------------------------------------------------------- )x2
D-------5-7-9--5--7-----5------------------------------9--5--4-- )
A--7-7---------------9----9-7-5--10-9-7-10-9-7-4-7-5------------ )
E------------------------------------------------------7--3--2-- )

Verse 2
E------------------------------------------------------------------|
B------------------------------------------------------------------|
G------------------------------------------------------------------|
D------------------------------------------------------------------|
A------------------------------------------------------------------|
E--2-2-2-2-2-2-2-2-2-2-2-2-2-2-2-2-2-2-2-2-2-2-2-2-2-2-2-2-2-2-2-2-|
P.M* * * * * * * * * * * * * * * * * * * * * * * * * * * * * * * *

E---------------------------------------------------------------|
B---------------------------------------------------------------|
G---------------------------------------------------------------|
D--4------------------------------------------------------------|
A--4------------------------------------------------------------|
E--2--------------------------------------------*slide*---------|

E------------------------------------------------------------------|
B------------------------------------------------------------------|
G------------------------------------------------------------------|
D------------------------------------------------------------------|
A------------------------------------------------------------------|
E--2-2-2-2-2-2-2-2-2-2-2-2-2-2-2-2-2-2-2-2-2-2-2-2-2-2-2-2-2-2-2-2-|
P.M* * * * * * * * * * * * * * * * * * * * * * * * * * * * * * * *

E-----------------------------------------------------------------|
B-----------------------------------------------------------------|
G-----------------------------------------------------------------|
D---------------------------------------------------7-------------|
A---------------------------------------------------7-------------|
E--2-2-2-2-2-2-2-2-4-4-4-4-4-4-4-4-5-5-5-5-5-5-5-5--5-------------|
P.M* * * * * * * * * * * * * * * * * * * * * * * *

E--------------------------------------------------------------------|
B--------------------------------------------------------------------|
G--------------------------------------------------------------------|
D--------------------------------------------------------------------|
A--------------------------------------------------------------------|
E--8-8-8-8-8-8-8-8-8-8-8-8-8-8-8-8-8-0-0-0-0-0-0-0-0-0-0-0-0-0-0-0-0-|
 P.M* * * * * * * * * * * * * * * * * * * * * * * * * * * * * * * * *

E--------------------------------------------------------------------|
B--------------------------------------------------------------------|
G--------------------------------------------------------------------|
D--------------------------------------------------------------------|
A--------------------------------------------------------------------|
E--8-8-8-8-8-8-8-8-8-8-8-8-8-8-8-8-8-7-7-7-7-7-7-7-7-5-5-5-5-5-5-5-5-|
P.M* * * * * * * * * * * * * * * * * * * * * * * * * * * * * * * * *

E--------------------------------------------------------------------|
B--------------------------------------------------------------------|
G--------------------------------------------------------------------|
D--------------------------------------------------------------------|
A--------------------------------------------------------------------|
E--8-8-8-8-8-8-8-8-8-8-8-8-8-8-8-8-8-0-0-0-0-0-0-0-0-0-0-0-0-0-0-0-0-|
P.M* * * * * * * * * * * * * * * * * * * * * * * * * * * * * * * * *

E--------------------------------- |
B--------------------------------- |
G--------------------------------- |
D--------------------------------2 |
A--------------------------------2 |
E--3-3-3-3-3-3-3-3-2-2-2-2-2-2-2-0 |
P.M* * * * * * * * * * * * * * *

Time Signature Change (6/8)

E-------------------------------------------------------------|
B--------12-10-12-------13-12-13-------10-8-10-------12-10-12-|
G-------------------------------------------------------------|
D-------------------------------------------------------------|
A-------------------------------------------------------------|
E--0-0-0----------0-0-0----------0-0-0---------0-0-0----------|
P.M* * *          * * *          * * *         * * *

E------------------------------------------------------------|
B--------12-10-12-------13-12-13----8-7-5-7-5---5------------|
G---------------------------------------------7--------------|
D------------------------------------------------------------|
A------------------------------------------------------------|
E--0-0-0----------0-0-0--------------------------------------|
P.M* * *          * * *

E-------------------------------------------------------------|
B--------12-10-12-------13-12-13-------10-8-10-------12-10-12-|
G-------------------------------------------------------------|
D-------------------------------------------------------------|
A-------------------------------------------------------------|
E--0-0-0----------0-0-0----------0-0-0---------0-0-0----------|
P.M* * *          * * *          * * *         * * *

E------------------------------------------------------------|
B--------12-10-12-------13-12-13-----------------------------|
G------------------------------------------------------------|
D---------------------------------11--12---8-----------------|
A---------------------------------9---10---6-----------------|
E--0-0-0----------0-0-0--------------------------------------|
P.M* * *          * * *

That is all i have now, I will update this later with the rest of the tab
Добавлено: 06.07.2012
Другие материалы по этой песне:
  • Аккорды и текст

Страница создана 06.07.2012
http://primanota.ru/heavenly/evo-chords.htm
Привет, Гость.
Предлагаем пройти революционный курс по гитаре.
Подарок от PrimaNota.Ru, забирай!