PrimaNota.ru - самый крупный в мире бесплатный архив песенных текстов, аккордов, табулатур и нот


Heavenly Beat - Tradition - бас-таба, видео

Регистрация Запомнить меня
Войти через:  Facebook Google Twitter Vk Yandex Mail.ru

Heavenly Beat - Tradition - бас-таба, видео

Печатать
Просмотров: 80
-----------------------------------------------------------------
Tradition – Heavenly Beat
-----------------------------------------------------------------
Tabbed By: Madrone6     
e-mail: je.mathnerd15@gmail.com
Tuning: Standard


Intro: (x3)

G|------------------|------------------|------------------|-----------------|
D|------------------|------------------|------------------|/9-7-------7---7-|
A|7-----7---------7-|9-----9---------7-|7-----7---------7-|-------9-----9---|
E|----------10-10---|----------10-10---|----------10-10---|-----------------|

Verse: Intro (x4)

Instrumental Break

Chorus: (x2)

G|-----------------|----------------|--------------------|-----------------|
D|----------9-7----|----------9-7-9-|------------12-11-9-|----------9-9-11-|
A|7-----7-------10-|7-----7---------|10-----10-----------|9-----9----------|
E|-----------------|----------------|--------------------|-----------------|

Verse: (x4)

Instrumental Break

Chorus: (x2)

Break: Chorus (x2)

Outro: Intro (x4)



| /  slide up
| \  slide down
| h  hammer-on
| p  pull-off
| ~  vibrato
| +  harmonic
| x  Mute note

Добавлено: 26.10.2013
Другие материалы по этой песне:
  • Аккорды и текст

Страница создана 26.10.2013
http://primanota.ru/heavenly-beat/tradition-chords.htm
Привет, Гость.
Предлагаем пройти революционный курс по гитаре.
Подарок от PrimaNota.Ru, забирай!