PrimaNota.ru - самый крупный в мире бесплатный архив песенных текстов, аккордов, табулатур и нот


Heaven Shall Burn - Only Truth - текст песни, таба, бас-таба, видео

Регистрация Запомнить меня
Войти через:  Facebook Google Twitter Vk Yandex Mail.ru

Heaven Shall Burn - Only Truth - текст песни, таба, бас-таба, видео

Печатать
Просмотров: 224
Heaven Shall Burn
The Only Truth

Alguna Sugerencia o Comentario: jose666chivas@msn.com

es mi primer tab y tengo 16 años, no esta completa pero lo que si hice esta bien.

Gtr. 1 & 2
(0:00)
|-------------------------------------------------------------------|
|-------------------------------------------------------------------|
|-------------------------------------------------------------------|
|-------------------------------------------------------------------|
|-------------------------------------------------------------------|
|-2-000-2-000-2-000-2-000-2-000-332-000-2-000-2-000-5-000-3-000-3h5-|
pm  ...   ...   ...   ...   ...     ...   ...   ...   ...   ...
|-------------------------------------------------------------------|
|-------------------------------------------------------------------|
|-------------------------------------------------------------------|
|-------------------------------------------------------------------|
|-------------------------------------------------------------------|
|-2-000-2-000-2-000-2-000-2-000-332-000-2-000-2-000-5-3-2-0-3-2-1-0-|
pm  ...   ...   ...   ...   ...     ...   ...   ... . . . . . . . .

Gtr. 1 & 2
(0:12)
(x2)
|-------------------------------------------------------------------|
|-------------------------------------------------------------------|
|-------------------------------------------------------------------|
|----------------------------------------10-----8---------7h8---7-8-|
|-----7h8-----10h12-----8h10--10-7-8---------------------------7----|
|-000-----000-------000--------------000----000---0000000-----------|
pm...     ...       ...              ...    ...   .......

Gtr. 1 & 2
(0:23)
(x?)
|------------------------------------------------------------------|
|------------------------------------------------------------------|
|------------------------------------------------------------------|
|-------------------------2---2------------------------------------|
|-------------------------2---2------------------------------------|
|-000-000-0-0-0-0-000-000-2-0-2-000-000-0-0-0-0-333-333-111-111----|
pm... ... . . . . ... ...   .   ... ... . . . . ... ... ... ...


(0:34)
?????????????????????????????????
La parte siguiente no la pude sacar

(1:06)
|-------------|
|-------------|
|-------------|
|-0~----------|
|-0~----------|
|-0~----------|

Gtr. 1 & 2
(1:10)
|------------------------------------------------------------------|
|------------------------------------------------------------------|
|------------------------------------------------------------------|
|------------------------------------------------------------------|
|--------10-8-----8-7-----10-8-----10-8-----7h8--------------------|
|-000000------000-----000------000------000------------------------|
pm......      ...     ...      ...      ...
Gtr. 1 & 2
|------------------------------------------------------------------|
|------------------------------------------------------------------|
|------------------------------------------------------------------|
|------------------------------------------------------------------|
|--------10-8-----8-7-----10-8-----7---8---10----------------------|
|-000000------000-----000------000---0---0-------------------------|
pm......      ...     ...      ...   .   .

Gtr. 1 & 2
(1:22)
|------------------------------------------------------------------|
|------------------------------------------------------------------|
|------------------------------------------------------------------|
|------------------------------------------------------------------|
|-------10-8-----8-7-----10-8-----10-8---7h8-----------------------|
|-0-0-0------0-0-----0-0------0-0------0---------------------------|
pm. . .      . .     . .      . .      .
Gtr. 1 & 2
|------------------------------------------------------------------|
|------------------------------------------------------------------|
|------------------------------------------------------------------|
|------------------------------------------------------------------|
|-------10-8-----8-7-----10-8-----7---8---10-----------------------|
|-0-0-0------0-0-----0-0------0-0---0---0--------------------------|
pm. . .      . .     . .      . .   .   .

(1:36)
|-------------|
|-------------|
|-------------|
|-0~----------|
|-0~----------|
|-0~----------|

Gtr. 1
(1:41)
|------------------------------------------------------------------|
|------------------------------------------------------------------|
|------------------------------------------------------------------|
|------------------------------------------------------------------|
|-------------------------------------------10h8---8h7---10h8------|
|-000-000---000----000---000-000-000---000-------0-----0-----------|
pm... ...   ...    ...   ... ... ...   ...       .     .

Gtr. 1 & 2
(1:53)

|------------------------------------------------------------------|
|------------------------------------------------------------------|
|------------------------------------------------------------------|
|-000-000---000----000---000-000-000-------------------------------|
|-000-000---000----000---000-000-000--------10h8---8h7---10h8------|
|-000-000---000----000---000-000-000---000-------0-----0-----------|
pm... ...   ...    ...   ... ... ...   ...       .     .

Gtr. 1
(2:04)
(x2)
|------------------------------------------------------------------------|
|------------------------------------------------------------------------|
|------------------------------------------------------------------------|
|---------------------101010-------------888-------------888-777-555-777-|
|-101010-888-777-888---------888-777-888-----888-777-888-----------------|
|------------------------------------------------------------------------|

Gtr. 2
(2:04)
(x2)
|------------------------------------------------------------------|
|------------------------------------------------------------------|
|------------------------------------------------------------------|
|-000-000---000----000---000-000-000-------------------------------|
|-000-000---000----000---000-000-000-------------------------------|
|-000-000---000----000---000-000-000-------------------------------|
pm... ...   ...    ...   ... ... ...

Gtr. 1
(2:14)
(x?)
|------------------------------------------------------------------|
|------------------------------------------------------------------|
|------------------------------------------------------------------|
|------------------------------10----------------------------------|
|-8/10-8-7-8/10-8-7--8/10-8-7-8--8-7-------------------------------|
|------------------------------------------------------------------|

Gtr. 2
(x2)
No tengo seguridad sobre esto
|-------------------------------------------------|
|-------------------------------------------------|
|-------------------------------------------------|
|-00-000---0-0-0----------------------------------|
|-00-000---0-0-0----------------------------------|
|-00-000---0-0-0----------------------------------|

Gtr. 1
(2:17)
|------------------------------------------------------------------------|
|------------------------------------------------------------------------|
|------------------------------------------------------------------------|
|---------------------101010-------------888-------------888-777-555-777-|
|-101010-888-777-888---------888-777-888-----888-777-888-----------------|
|------------------------------------------------------------------------|

Gtr. 2
(2:17)
|------------------------------------------------------------------|
|------------------------------------------------------------------|
|------------------------------------------------------------------|
|-000-000---000----000---000-000-000-------------------------------|
|-000-000---000----000---000-000-000-------------------------------|
|-000-000---000----000---000-000-000-------------------------------|
pm... ...   ...    ...   ... ... ...

Gtr. 1 & 2
(2:24)
|------------------------------------------------------------------|
|------------------------------------------------------------------|
|------------------------------------------------------------------|
|------------------------------------------------------------------|
|--------10-8-----8-7-----10-8-----10-8-----7h8--------------------|
|-000000------000-----000------000------000------------------------|
pm......      ...     ...      ...      ...

Gtr. 1 & 2
|------------------------------------------------------------------|
|------------------------------------------------------------------|
|------------------------------------------------------------------|
|------------------------------------------------------------------|
|--------10-8-----8-7-----10-8-----7---8---10----------------------|
|-000000------000-----000------000---0---0-------------------------|
pm......      ...     ...      ...   .   .

Gtr. 1 & 2
(2:38)
|------------------------------------------------------------------|
|------------------------------------------------------------------|
|------------------------------------------------------------------|
|------------------------------------------------------------------|
|-------10-8-----8-7-----10-8-----10-8---7h8-----------------------|
|-0-0-0------0-0-----0-0------0-0------0---------------------------|
pm. . .      . .     . .      . .      .

Gtr. 1 & 2
|------------------------------------------------------------------|
|------------------------------------------------------------------|
|------------------------------------------------------------------|
|------------------------------------------------------------------|
|-------10-8-----8-7-----10-8-----7---8---10-----------------------|
|-0-0-0------0-0-----0-0------0-0---0---0--------------------------|
pm. . .      . .     . .      . .   .   .

Gtr.1 & 2
(2:50)
(x?)
|------------------------------------------------------------------|
|------------------------------------------------------------------|
|------------------------------------------------------------------|
|------------------------------------------------------------------|
|------------------------------------------------------------------|
|-000-000-0-0-0-0--0-000-0-000-------------------------------------|
pm... ... . . . .  . ... . ...

Gtr. 1 & 2
(3:02)
(x2)
|-------------------------------------------------------------------|
|-------------------------------------------------------------------|
|-------------------------------------------------------------------|
|----------------------------------------10-----8---------7h8---7-8-|
|-----7-8-----10-12-----8-10--10-7-8---------------------------7----|
|-000-----000-------000--------------000----000---0000000-----------|
pm... . . ...  .  . ... .  .   . . . ...    ...   .......

Gtr. 1 & 2
(3:13)
(x2)
|-------------------------------------------------------------------|
|-------------------------------------------------------------------|
|-------------------------------------------------------------------|
|----------------------------------------10-----8---------7h8---7-8-|
|-----7h8-----10h12-----8h10--10-7-8---------------------------7----|
|-000-----000-------000--------------000----000---0000000-----------|
pm...     ...       ...              ...    ...   .......

Gtr. 1 & 2
(3:25)
(x?)
|------------------------------------------------------------------|
|------------------------------------------------------------------|
|------------------------------------------------------------------|
|-------------------------2---2------------------------------------|
|-------------------------2---2------------------------------------|
|-000-000-0-0-0-0-000-000-2-0-2-000-000-0-0-0-0-333-333-111-111----|
pm... ... . . . . ... ...   .   ... ... . . . . ... ... ... ...


(3:36)
???????????????????????????????
No pude sacarlo

Gtr. 1 & 2
(4:08)
|------------------------------------------------------------------|
|------------------------------------------------------------------|
|------------------------------------------------------------------|
|-000-000---000----000---000-000-000-------------------------------|
|-000-000---000----000---000-000-000-------------------------------|
|-000-000---000----000---000-000-000-------------------------------|
pm... ...   ...    ...   ... ... ...
Добавлено: 25.06.2012
Другие материалы по этой песне:

Страница создана 23.02.2012
http://primanota.ru/heaven-shall-burn/only-truth-chords.htm
Привет, Гость.
Предлагаем пройти революционный курс по гитаре.
Подарок от PrimaNota.Ru, забирай!