PrimaNota.ru - самый крупный в мире бесплатный архив песенных текстов, аккордов, табулатур и нот


Heaven Shall Burn - Dying In Silence - текст песни, таба, видео

Регистрация Запомнить меня
Войти через:  Facebook Google Twitter Vk Yandex Mail.ru

Heaven Shall Burn - Dying In Silence - текст песни, таба, видео

Печатать
Просмотров: 95
D-|---------------------------------------------------------------------------|
A-|---------------------------------------------------------------------------|
F-|---------------------------------------------------------------------------|
C-|---------------------------------------------------------------------------| 
G-|000--000-000----000--000-000----000--000-000----000--000-000-------000-----|
C-|000--000-000----000--000-000----000--000-000----000--000-000-0-0-0-000-0-0-|
   ***  *** ***    ***  *** ***    ***  *** ***    ***  *** *** * * * *** * *


D-|---------------------------------------------------------------------------------------|
A-|---------------------------------------------------------------------------------------|
F-|---------------------------------------------------------------------------------------|
C-|---------------------------------------------------------------------------------------| 
G-|111--111-000----333--333-222-------222------111--111-000----333--333-222-------222-----|
C-|111--111-000----333--333-222 2 2 2 222-2-2--111--111-000----333--333-222-2-2-2-222-2-2-|
   ***  *** ***    ***  *** *** * * * *** * *  ***  *** ***    ***  *** *** * * * *** * *



D-|-----------------------------------------------------------------------------------|
A-|-----------------------------------------------------------------------------------|
F-|-----------------------------------------------------------------------------------|
C-|-----------------------------------------------------------------------------------| 
G-|888888887777777707777777755555555121212121212121288888888101010101010101077777777--|
C-|-----------------------------------------------------------------------------------|
  

D-|-----------------------------------------------------------------------------------|
A-|-----------------------------------------------------------------------------------|
F-|-----------------------------------------------------------------------------------|
C-|-----------------------------------------------------------------------------------| 
G-|8888888877777777077777777555555551212121212121212888888888888777777777777----------|
C-|-----------------------------------------------------------------------------------|
 

D-|-----------------------------------------------------------------------------------|
A-|-----------------------------------------------------------------------------------|
F-|-----------------------------------------------------------------------------------|
C-|------------------------------------------111---333--------------------------------| X 2
G-|----4-6-----------4-6-5-6-------4-6-------111---333--------------------------------|
C-|000-----3-000-000---------3-000-----3-000-111-0-333--------------------------------| 
   ***       *** ***           ***       ***     *


D-|-----------------------------------------|
A-|-----------------------------------------|
F-|-----------------------------------------|
C-|3----2/3-3/5-2/3----5-3-2/3/5------------| X 2
G-|-----------------------------------------|
C-|-0000-----------0000-0-0-----------------|
    ****           **** * *


D-|-----------------------------------------|
A-|-----------------------------------------|
F-|-----------------------------------------|
C-|5/7----5/7-7/8-5/7----5-3-2/3/5----------| X 2
G-|-----------------------------------------|
C-|---0000-----------0000-0-0---------------|
      ****           **** * *

D-|-----------------------------------------|
A-|-----------------------------------------|
F-|-----------------------------------------| Second time finishes like this.
C-|-----------------------------------------| 
G-|-6-5-3/5/6-------------------------------|
C-|-60503/5/6-------------------------------|
     * *  

D-|---------------------------------------------------------------------------|
A-|---------------------------------------------------------------------------|
F-|---------------------------------------------------------------------------|
C-|---------------------------------------------------------------------------| 
G-|111--111-000----333--333-222----111--111-000----333--333-222-------222-----|
C-|111--111-000----333--333-222----111--111-000----333--333-222-2-2-2-222-2-2-|
   ***  *** ***    ***  *** ***    ***  *** ***    ***  *** *** * * * *** * *



D-|-------------------------------------------------------------------------|
A-|-------------------------------------------------------------------------|
F-|-------------------------------------------------------------------------|
C-|-------------------------------------------------------------------------| 
G-|--------000--------------222----------------000--------------222---------|
C-|111111110000000003333333322222222222111111110000000003333333322222222222-|
   ************************************************************************


D-|-----------------------------------------------------------------------------------|
A-|-----------------------------------------------------------------------------------|
F-|-----------------------------------------------------------------------------------|
C-|7--5-5-5-5-5-5--5--3-3-3-3-3-3--12--8-8-8-8-8-8--10--7-7-7-7-7-7-------------------| X 2
G-|-----------------------------------------------------------------------------------|
C-|-----------------------------------------------------------------------------------|
 

D-|-----------------------------------------|
A-|-----------------------------------------|
F-|-----------------------------------------|
C-|3----2/3-3/5-2/3----5-3-2/3/5------------| X 2
G-|-----------------------------------------|
C-|-0000-----------0000-0-0-----------------|
    ****           **** * *


D-|-----------------------------------------|
A-|-----------------------------------------|
F-|-----------------------------------------|
C-|5/7----5/7-7/8-5/7----5-3-2/3/5----------| X 2
G-|-----------------------------------------|
C-|---0000-----------0000-0-0---------------|
      ****           **** * *
   

D-|-----------------------------------------|
A-|-----------------------------------------|
F-|-----------------------------------------|
C-|-----------------------------------------| Second time finishes like this.
G-|-6-5-3/5/6-------------------------------|
C-|-60503/5/6-------------------------------|
     * *  

D-|-----------------------------------------------------------------------------------|
A-|-----------------------------------------------------------------------------------|
F-|-----------------------------------------------------------------------------------|
C-|------------------------------------------000---333--------------------------------| X 2
G-|----4-1-----------4-1-2-1-------4-1-------000---333--------------------------------|
C-|000-----2-000-000---------2-000-----2-000-000-0-333--------------------------------| 
   ***       *** ***           ***       ***     *


D-|-----------------------------------------|
A-|-----------------------------------------|
F-|-----------------------------------------|
C-|3----2/3-3/5-2/3----5-3-2/3/5------------| X 2
G-|-----------------------------------------|
C-|-0000-----------0000-0-0-----------------|
    ****           **** * *


D-|-----------------------------------------|
A-|-----------------------------------------|
F-|-----------------------------------------|
C-|5/7----5/7-7/8-5/7----5-3-2/3/5----------| X 2
G-|-----------------------------------------|
C-|---0000-----------0000-0-0---------------|
      ****           **** * *
   

D-|-----------------------------------------|
A-|-----------------------------------------|
F-|-----------------------------------------|
C-|-----------------------------------------| Second time finishes like this.
G-|-6-5-3/5/6-------------------------------|
C-|-60503/5/6-------------------------------|
     * *  

D-|---------------------------------------------------------------------------|
A-|---------------------------------------------------------------------------|
F-|---------------------------------------------------------------------------|
C-|---------------------------------------------------------------------------| 
G-|111--111-000----333--333-222----111--111-000----333--333-222-------222-----|
C-|111--111-000----333--333-222----111--111-000----333--333-222-2-2-2-222-2-2-|
   ***  *** ***    ***  *** ***    ***  *** ***    ***  *** *** * * * *** * *


D-|-----------------------------------------------------------------------------------|
A-|-----------------------------------------------------------------------------------|
F-|-----------------------------------------------------------------------------------|
C-|-----------------------------------------------------------------------------------| 
G-|888888887777777707777777755555555121212121212121288888888101010101010101077777777--|
C-|-----------------------------------------------------------------------------------|
  

D-|-----------------------------------------------------------------------------------|
A-|-----------------------------------------------------------------------------------|
F-|-----------------------------------------------------------------------------------|
C-|-----------------------------------------------------------------------------------| 
G-|8888888877777777077777777555555551212121212121212888888888888777777777777----------|
C-|-----------------------------------------------------------------------------------|


D-|-------------------------------------------------------------------------|
A-|-------------------------------------------------------------------------|
F-|-------------------------------------------------------------------------|
C-|-------------------------------------------------------------------------| 
G-|--------000--------------222----------------000--------------222---------|
C-|111111110000000003333333322222222222111111110000000003333333322222222222-|
   ************************************************************************



D-|-----------------------------------------------------------------------------------|
A-|-----------------------------------------------------------------------------------|
F-|-----------------------------------------------------------------------------------|
C-|7--5-5-5-5-5-5--5--3-3-3-3-3-3--12--8-8-8-8-8-8--10--7-7-7-7-7-7-------------------| X 2
G-|-----------------------------------------------------------------------------------|
C-|-----------------------------------------------------------------------------------|


D-|-------------------------------------------------------------------------|
A-|-------------------------------------------------------------------------|
F-|-------------------------------------------------------------------------|
C-|-------------------------------------------------------------------------| x 4
G-|--------000--------------222----------------000--------------222---------|
C-|111111110000000003333333322222222222111111110000000003333333322222222222-|
   ************************************************************************



*  Palm Mute
/  Slide or Hammer on


Not fully accurate but it sounds alright to me. 
Добавлено: 08.09.2013
Другие материалы по этой песне:
  • Аккорды и текст

Страница создана 14.06.2012
http://primanota.ru/heaven-shall-burn/dying-in-silence-chords.htm
Привет, Гость.
Предлагаем пройти революционный курс по гитаре.
Подарок от PrimaNota.Ru, забирай!