PrimaNota.ru - самый крупный в мире бесплатный архив песенных текстов, аккордов, табулатур и нот


Heaven Shall Burn - Dream Is Dead - текст песни, таба, видео

Регистрация Запомнить меня
Войти через:  Facebook Google Twitter Vk Yandex Mail.ru

Heaven Shall Burn - Dream Is Dead - текст песни, таба, видео

Печатать
Просмотров: 197
Band:Heaven Shall Burn
Song:The Dream is Dead
Album:Antigone
Tuning:Drop-C
Tabber:Brandon Wall (ze_carvingheadz@yahoo.com)
*Please rate the tabs so i can see wut people think!*

Intro:(Both Guitars)

D||------------|
A||------------|
F||------------|  X4
C||------------|
G||-1-00-1-00--|
C||-1-00-1-00--|
      ..   ..

D||----------------------|---------------------------|
A||----------------------|---------------------------|
F||----------------------|---------------------------|  X4
C||----------------------|---------------------------|
G||-1-00-1-00-3-6-5-3-2-3|-1-00-1-00-3-6-5-2-3-2-3---|
C||-1-00-1-00-3-6-5-3-2-3|-1-00-1-00-3-6-5-2-3-2-3---|
      ..   ..                ..   ..

Verse 1:(Both Guitars)

D||------------------------------|
A||------------------------------|
F||------------------------------|  X4
C||------------------------------|
G||-------6-5-6-5-------8-7--5---|
C||-00-00---------00-00----------|
    .. ..         .. ..

Verse 2:

(Both Guitars)

D||-------------------------|-----------------------|
A||-------------------------|-----------------------|
F||-------------------------|-----------------------|  X2
C||-------------------------|--------8--------------|
G||----5-6----9----5-6--3-5-|----5-6---6-5--9-6-5-6-|
C||-00-----00---00----------|-00--------------------|
    ..     ..   ..            ..

Then play this after the 2nd time...

(Guitar 1)
D||-------------------------|-----------------------|
A||-------------------------|-----------------------|
F||-------------------------|-----------------------|  X2
C||-------------------------|--------8--------------|
G||----5-6----9----5-6--3-5-|----5-6---6-5--9-6-5-6-|
C||-00-----00---00----------|-00--------------------|
    ..     ..   ..            ..

(Guitar 2)
D||--------------|
A||--------------|
F||--------------|  X4
C||--------------|
G||-0-3-0-3-00---|
C||-0-3-0-3-00---|
    . . . . ..

Verse 3:  (THE DOWN,DOWN,DOWN, PART)
(Both Guitars)
D||----------------------------------------------------------|
A||----------------------------------------------------------|
F||----------------------------------------------------------|  x2
C||----------------------------------------------------------|
G||-5----5----8---6----5----8---6----5----8---6----5-6-6-6---|
C||---00---00---0---00---00---0---00---00---0---0------------|
      ..   ..   .   ..   ..   .   ..   ..   .   .

Pre-Chorus:

(Guitar 1)

D||---------------|
A||---------------|
F||---------------|  X14
C||---------------|
C||-8---6----5----|
C||---0---00---00-|
      .   ..   ..

(Guitar 2)
D||----------------|
A||----------------|
F||----------------|
C||----------------|
G||-5~--8~--3~--7~-|
C||-5~--8~--3~--7~-|

Chorus:

D||-------------------------------------------|
A||-------------------------------------------|  (Play this part clean W/1
F||-------------2-2-2--5-3-2-3--3-3-7-5-3-----|  Guitar)
C||-------5-5-5---------------------------3-3-|
G||-0-0-0-------------------------------------|
C||-------------------------------------------|

(Both guitars)
D||--------------------------------------------------------------|
A||--------------------------------------------------------------|
F||--------------------------------------------------------------| Cont. down
C||---------------22222222-33333333-777-333-222------------------|
G||------55555555-------------------------------3333333333333333-|
C||-0000---------------------------------------------------------|
    ....

Cont'd

D||-------------------|
A||-------------------|
F||-------------------| X2
C||-------------------|
G||-555555555555------|
C||---------------0-0-|

Then....

(verse 1) X8
(Verse 2)
(Verse 3)
(Pre-Chorus)
(Chorus)
(Verse 1) X8

End with:

D||---
A||---
F||---
C||---
G||-0-
C||---

Thats about it! This is a awesome song!HEAVEN SHALL BURN RULES!!
Добавлено: 07.07.2012
Другие материалы по этой песне:

Страница создана 08.05.2012
http://primanota.ru/heaven-shall-burn/dream-is-dead-chords.htm
Привет, Гость.
Предлагаем пройти революционный курс по гитаре.
Подарок от PrimaNota.Ru, забирай!