PrimaNota.ru - самый крупный в мире бесплатный архив песенных текстов, аккордов, табулатур и нот


Heaven And Hell - Follow The Tears - таба, бас-таба, видео

Регистрация Запомнить меня
Войти через:  Facebook Google Twitter Vk Yandex Mail.ru

Heaven And Hell - Follow The Tears - таба, бас-таба, видео

Печатать
Просмотров: 297
Уроки эстрадного вокала в Санкт-Петербурге
-------------------------------------------------------------------------------
                 Follow the Tears - Heaven and Hell
-------------------------------------------------------------------------------
Tabbed by:ironmanben
Email:superclam500@yahoo.com

| /  slide up
| \  slide down
| h  hammer-on
| p  pull-off
| ~  vibrato
| +  harmonic
| x  Mute note


Tuning:It's in really low #C, so I would recommend tuning the E 
to #C, and then tuning by ear from there.

I noticed the intro on my first tab was wrong, so here is the correct one.

Intro x14
e|-----------------|---------|
B|-----------------|---------|
G|-----------------|---9~----|
D|-2-22-5---4------|---9~----|
A|-2-22-5---4----- |---7~----|
E|-0-00-3-0-2-0----|---------|
   x xx x x x x     Do this only
                   the 5th, 9th
                   12th, and 13th
                   and 14th times
Добавлено: 03.07.2012
Другие материалы по этой песне:

Страница создана 15.04.2012
http://primanota.ru/heaven-and-hell/follow-the-tears-chords.htm
Привет, Гость.
Предлагаем пройти революционный курс по гитаре.
Подарок от PrimaNota.Ru, забирай!