PrimaNota.ru - самый крупный в мире бесплатный архив песенных текстов, аккордов, табулатур и нот


Heaven And Hell - Breaking Into Heaven - таба, видео

Регистрация Запомнить меня
Войти через:  Facebook Google Twitter Vk Yandex Mail.ru

Heaven And Hell - Breaking Into Heaven - таба, видео

Печатать
Просмотров: 159
Breaking Into Heaven (Solo)
Heaven and Hell
From 2009's album "THE DEVIL YOU KNOW".
Tune Down Half Step

==================================================
Legend:

h = Hammer on
p = Pull off
^ = Bend
^r= Bend and release
~ = Tremolo/distortion/let ring
\ = Slide down


=================================================

|----------------------------------------|
|--12^-12^-12^-12^-12^-12^-12^-12-^------|
|----------------------------------------|
|----------------------------------------|
|----------------------------------------|
|----------------------------------------|

|--12^----14p12----------------------------------------------------|
|---------------14-12----------------------------------------------|
|---------------------13-12-11-------11----------------------------|
|------------------------------14-11----14h11----------------------|
|---------------------------------------------14-11\9--------------|
|-----------------------------------------------------12-11\9-7-9--|


|--------------------------------|
|--------------------------------|
|--------------------------------|
|--------------------------------|
|--7-9-9^r-7-9~~--7-9-9^---------|
|-----------------------9~~------|


|---------------------------------------------|
|-------------------------------------9~~-----|
|-------------------------------------9~~-----|
|-------------------------------------9~~-----|
|-------7-9-10-7-10-7-9^r---------------------|
|--7^-9-------------------9~~-----9-----------|


   Hold the bends at 12

|-----------12------13^---13h10----------------|
|--12^-12^-----12^---------------13--13^-13^---|
|----------------------------------------------|
|----------------------------------------------|
|----------------------------------------------|
|----------------------------------------------|

|--10-------------------10--------------------|
|-----13-10-----10---------13-10----10-13^----|
|-----------12^----12^-----------12^----------|
|---------------------------------------------|
|---------------------------------------------|
|---------------------------------------------|


|--10-----------------------------|
|-----13-10-----------------------|
|-----------12^-12-10-12^---------|
|-------------------------12~~----|
|---------------------------------|
|---------------------------------|

|--------------------------------------10^----------10^--------------|
|------10h12h13-----10h12h13-----10h12--------10h12----------10h12---|
|--12------------12-----------12-----------12-------------12---------|
|--------------------------------------------------------------------|
|--------------------------------------------------------------------|
|--------------------------------------------------------------------|

|---------------------------------|
|--13^-13-10-13-10-13-13^r--13^---|
|---------------------------------|
|---------------------------------|
|---------------------------------|
|---------------------------------|

==========================================================================

That's it. I really like this solo, and none of the tabs i looked on here had it, so I 
to tab it out. Enjoy, please rate. :D
Добавлено: 09.05.2012
Другие материалы по этой песне:

Страница создана 26.03.2012
http://primanota.ru/heaven-and-hell/breaking-into-heaven-chords.htm
Привет, Гость.
Предлагаем пройти революционный курс по гитаре.
Подарок от PrimaNota.Ru, забирай!