PrimaNota.ru - самый крупный в мире бесплатный архив песенных текстов, аккордов, табулатур и нот


Heaven And Hell - Bible Black - таба, бас-таба, видео

Регистрация Запомнить меня
Войти через:  Facebook Google Twitter Vk Yandex Mail.ru

Heaven And Hell - Bible Black - таба, бас-таба, видео

Печатать
Просмотров: 764
Уроки эстрадного вокала в Санкт-Петербурге
Artist:    Black Sabbath
Song:      Bible Black
Album:     The Devil You Know
Tabbed by: xHellbound


Are you reading from the Bible Black?


~  - vibrato
h  - hammer on
p  - pull off
\  - slide
b  - full bend
br - bend & release


On the album I believe Tony plays a 12-string acoustic, but live he just turns his 
guitar volume down until he gets a clean tone with some bite to it.


Acoustic Riff 1

|--------------------|-------------------|
|--------------------|-------------------|
|--------------------|--------0-2--------|
|------2---1---------|------2-----4-0-4--|
|----2---2---2-------|----2--------------|
|--0-----------3-2~--|--0----------------|


|---------------------|-----------0--|
|---------------------|-----------0--|
|---------------------|--------0--0--|
|------5-------5------|------2----2--|
|----5---5---5--------|----2------2--|
|--3-------2-----2h3--|--0--------0--|

Solo

|-------|-----------------------------------|---------------|
|-------|--15-------------------------------|--15br-12-15b--|
|--14b--|-----12-14----12-11----------------|---------------|
|-------|--------------------12------12\14--|---------------|
|-------|------------------------14---------|---------------|
|-------|-----------------------------------|---------------|


Acoustic Riff 2

|------------------------|--------------0----|
|------------------------|----------------0--|
|----------0-------------|------------0------|
|--------0------------7--|----------2--------|
|-------------------7----|--------2----------|
|--0-2-3-------/7-5------|--3-2-0------------|

|-------------------|---------------0--|
|-------------------|---------------0--|
|----------0--------|------------0--0--|
|--------0----------|----------2----2--|
|-------------------|--7\----2------2--|
|--0-2-3-------7-5--|------0--------0--|

Solo

|--17b--17b-17-15-17br-p15-----|
|--------------------------17--|
|------------------------------|
|------------------------------|
|------------------------------|
|------------------------------|

|--------------------22b--|
|--22b--22b-22br-p20------|
|-------------------------|
|-------------------------|
|-------------------------|
|-------------------------|

Acoustic Riff 3

|---------------------|----------------|
|---------------------|----------------|
|------9---10---7-10--|------9---10/7--|
|----7---7----9-------|----7---7----5--|
|--0------------------|--0-------------|
|---------------------|----------------|


|---------------------|-----------|
|---------------------|-----------|
|------9---10---7-10--|------9/7--|
|----7---7----9-------|----7---5--|
|--0------------------|--0--------|
|---------------------|-----------|
Добавлено: 24.03.2012
Другие материалы по этой песне:

Страница создана 16.03.2012
http://primanota.ru/heaven-and-hell/bible-black-chords.htm
Привет, Гость.
Предлагаем пройти революционный курс по гитаре.
Подарок от PrimaNota.Ru, забирай!