PrimaNota.ru - самый крупный в мире бесплатный архив песенных текстов, аккордов, табулатур и нот


Heather Nova - Heal - текст песни, таба, видео

Регистрация Запомнить меня
Войти через:  Facebook Google Twitter Vk Yandex Mail.ru

Heather Nova - Heal - текст песни, таба, видео

Печатать
Просмотров: 122
    _______________
   / Heather Nova  / I think this song is about a girl trying to get over
  / Heal          /  a finished relationship though she still longs for and
 / Oyster        /   imagines his embracing and heating love.
/_______________/    



               Dm                 G/B                  Bb
          x x 0 2 3 1         x 2 0 0 3 x         6 8 8 7 6 x


                            C              Em
                      8 10 10 9 8 x   0 2 2 0 0 0


Gtr 1 - Lead Clean Acoustic
Gtr 2 - Backup Clean Acoustic
Gtr 3 - Clean Electric with Chorus
Tunings: Standard (E A D G B E)


Intro:
  4/4
  Gtr 1
    Dm                                Bb
    S S S S S S S S S S S S S S E     S S S S S S S S S S S S S S E
||--------1-------1-------1---------|-------6-------6-------6---------|
||o---3-------3-------3-------3-----|---6-------6-------6-------6-----|
||------2-------2-------2-------0---|-----7-------7-------7-------7---|
||--0-------0-------0-------0-------|---------------------------------|
||o---------------------------------|---------------------------------|
||----------------------------------|-6-------6-------6-------6-------|
 |-Rhy Fig 1


  C
  S S S S S S S S S S S S S S E    2x
|-------8-------8-------8----------||
|---8-------8-------8-------8-----o||
|-----9-------9-------9-------9----||
|----------------------------------||
|---------------------------------o||
|-8-------8-------8-------8--------||
                     end Rhy Fig 1-|




1st Verse: Rhy Fig 1 x4




Chorus:
  Gtr 2
    Dm              G                 Bb               C
    H               H                 H                H
    |               |                 |                |
    /               /                 /                /

                                     1., 2., 3.
  Gtr 1
    S S S S S S S S S S S S S S E     S S S S S S E    S S  S S S S E     
||--1-----0h1-------------0---------|-------6-----------------8----------||
||o-2-2-------3---3-----------3-----|-----------6-----------------8-----o||
||--3---3-------2---0-0---------0---|---7---------7------9----------9----||
||--0---------------0---0-----------|-----8----------------10------------||
||o-----------------2---------------|-8---------------10----------------o||
||--------------------------3-------|-6-------6--------8--------8--------||
|
| Gtr 3
|   E   E   E   E   E   E   E   E     E   E   E   E    E    E   E   E
||----------------------------------|---------------------------5--------||
||o-6-------6-------8-------8-------|-6-------6--------8----------------o||
||------7-------7-------7-------7---|-----7-------7---------7-------7----||
||----------------------------------|------------------------------------||
||o---------------------------------|-----------------------------------o||
||----------------------------------|------------------------------------||



 Gtr 2
  Bb              C
  H               H
  |               |
  /               /

 4.
 Gtr 1
  E.    S Q       H
|-------6-------------------------|
|---------8-----------------------|
|-7-------------------------------|
|-8-------------------------------|
|-8-------------------------------|
|-6---------------8---------------|
|
|Gtr 3
| Q       Q       H
|---------------------------------|
|-6-------------------------------|
|---------7-------5---------------|
|---------------------------------|
|---------------------------------|
|---------------------------------|




2nd Verse: Similar to previous
(but do a -0h1- on the thin e-string the first time it's stroked)




Chorus: Similar to previous




Bridge:
  Gtr 1, 2
    Em              Bb                C
    E.    S E   S S E.    S E   S S   E.    S E   S S E.    S E   S S
    |     | |   | | |     | |   | |   |     | |   | | |     | |   | |
    /     / /   / / /     / /   / /   /     / /   / / /     / /   / /

  Gtr 3
    S S S S S S S S S S S S S S S S   S S S S S S S S S S S S S S S S  4x
||----------------------------------|----------------------------------||
||o---8---8-----8-----6---5---5-6-5-|---8---8-----8-----8---8-----8---o||
||--9---9---9-9---9-7---7---7-------|-9---9---9-9---9-9---9---9-9---9--||
||----------------------------------|----------------------------------||
||o---------------------------------|---------------------------------o||
||----------------------------------|----------------------------------||




Chorus:
  Gtr 2
    Dm              G                 Bb              C
    E.    S E   S S E.    S E   S S   E.    S E   S S E.    S E   S S
    |     | |   | | |     | |   | |   |     | |   | | |     | |   | |
    /     / /   / / /     / /   / /   /     / /   / / /     / /   / /

                                     1., 2., 3.
  Gtr 1
    S S S S S S S S S S S S S S E     S S S S S S E    S S  S S S S E
||--1-----0h1-------------0---------|-------6-----------------8----------||
||o-2-2-------3---3-----------3-----|-----------6-----------------8-----o||
||--3---3-------2---0-0---------0---|---7---------7------9----------9----||
||--0---------------0---0-----------|-----8----------------10------------||
||o-----------------2---------------|-8---------------10----------------o||
||--------------------------3-------|-6-------6--------8--------8--------||
|
| Gtr 3
|   S S S S S S S S S S S S S S S S   S S S S S S S S  S S  S S S S S S
||----------------------------------|------------------------------------||
||o---6---5h6---6-----5---5-----5---|---6---6-----6------8----8-----8---o||
||--7---7-----7---7-5---5---5-5---5-|-7---7---7-7---7--9----9---9-9---9--||
||----------------------------------|------------------------------------||
||o---------------------------------|-----------------------------------o||
||----------------------------------|------------------------------------||


 4.
 Gtr 1, 2, 3
  Q       Q       H                 +W                  +W
|-----------------0---------------|-(0)---------------|-(0)---------------|
|-6-------3-------1---------------|-(1)---------------|-(1)---------------|
|-7-------2-------0---------------|-(0)---------------|-(0)---------------|
|-8-------0-------2---------------|-(2)---------------|-(2)---------------|
|-8---------------3---------------|-(3)---------------|-(3)---------------|
|-6-------------------------------|-------------------|-------------------|




Outro Chorus:
                                     1., 2., 3.
  Gtr 1
    E.    S S S S S E.    S S S S S   E.    S S S S S E.    S S S S S
||--------0h1-------------0---------|-------6---------------8----------||
||o-----------3---3-----------3---3-|-----------6---6-----------8---8-o||
||--------------2---------------0---|-------------7---------------9----||
||--0-------0-----------------------|----------------------------------||
||o-----------------2-------2-------|---------------------------------o||
||----------------------------------|-6-------6-------8-------8--------||


 4.
  E.    S S S S S H                 +W
|-------6-------------------------|-----------------------------------|
|-----------6---6-----------------|-----------------------------------|
|-------------7-------------------|-----------------------------------|
|---------------------------------|-----------------------------------|
|---------------------------------|-----------------------------------|
|-6-------6-------8---------------|-(8)-------------------------------|




Lyrics:

Verse: | Dm | Bb | C |
Chorus: | Dm G/B | Bb C |
Bridge: | Em Bb | C |

- 19th /September /05
Just mail me at Maitinin@gmail.com with questions, comments or corrections!
Добавлено: 10.03.2012
Другие материалы по этой песне:
  • Аккорды и текст

Страница создана 10.03.2012
http://primanota.ru/heather-nova/heal-chords.htm
Привет, Гость.
Предлагаем пройти революционный курс по гитаре.
Подарок от PrimaNota.Ru, забирай!