PrimaNota.ru - самый крупный в мире бесплатный архив песенных текстов, аккордов, табулатур и нот


Heather Kipnis - Upright - таба

Регистрация Запомнить меня
Войти через:  Facebook Google Twitter Vk Yandex Mail.ru

Heather Kipnis - Upright - таба

Печатать
Просмотров: 98
-------------------------------------------------------------------------------
                             UPRIGHT - Heather Kipnis
-------------------------------------------------------------------------------
Tabbed by: Heather Kipnis
E-mail: makelikeitall@gmail.com
Instruments: Voice, Guitar, Trumpet
ISMN: 979-0-58028-017-6

Tuning: Standard

e|---------------------------0----4----|
B|----------------0----0-----5----5----|
G|--1----1-/-4----4----4-/-6-6----6----|
D|-------------------------------------|
A|-------------------------------------|
E|-------------------------------------|

e|--7------4------7------4------5------3------5------3------2------|
B|--5------5------5------5------3------3------3------3------2------|
G|--6------6------6------6------4------0------4------0------2------|
D|-----------------------------------------------------------------|
A|-----------------------------------------------------------------|
E|-----------------------------------------------------------------|

e|--3----3-2----2-3----3-2----2----2----|---------------------------------|
B|--2----2-3----3-2----2-3----3----3----|--0----0-3----3-0----0-3----3----|
G|--0----0-0----0-0----0-0----0----0----|--2----2-0----0-2----2-0----0----|
D|--------------------------------------|--0----0-0----0-0----0-0----0----|
A|--------------------------------------|---------------------------------|
E|--------------------------------------|---------------------------------|

e|-----------------------------------------------------------------------------|
B|-o-------------------5-4----------------------------------2------0---------o-|
G|---4------4----------4-4----3------3----1--------3--------1------1----1------|
D|---4------4-----------------4------4----3--------4--------------------3------|
A|-o-------------------------------------------------------------------------o-|
E|-----------------------------------------------------------------------------|
     Why would you want to fall, when your own two feet can hold you upright?

e|-----------------------------------------------------------------------------|
B|-o-------------------5-4----------------------------------5------4---------o-|
G|---4------4----------4-4----3------3----1--------3--------4------4----3------|
D|---4------4-----------------4------4----3--------4--------------------4------|
A|-o-------------------------------------------------------------------------o-|
E|-----------------------------------------------------------------------------|
     Why would you want to fall, when you're only as strong as you're lonely?

e|--------3-----------2-----------3-----------2------------------------------------------------------|
B|-----2-----2-----3-----3-----2-----2-----3-----3--------0-------------3-----------0-----------3----|
G|--0-----------0-----------0-----------0--------------2-----2-------0-----0-----2-----2-----0-----0-|
D|--------------------------------------------------0--------------0----------0-----------0----------|
A|---------------------------------------------------------------------------------------------------|
E|---------------------------------------------------------------------------------------------------|

e|------------3-------2-------3-------2----------------------------------------|
B|---------2-------3-------2-------3-----------0-------3-------0-------3-------|
G|------0-------0-------0-------0-----------2-------0-------2-------0----------|
D|-------------------------------------0-------0-------0-------0---------------|
A|-----------------------------------------------------------------------------|
E|-----------------------------------------------------------------------------|

  VAMP:
e|---------------------------------------------|
B|-o-----------0--------0--------0--------0--o-|
G|---------2--------2--------2--------2--------|
D|------4--------4--------4--------4-----------|
A|-o-----------------------------------------o-|
E|---------------------------------------------|
  I will never find someone who will be mine
  For more than a day or two.

  VAMP:
e|---------------------------------------------|
B|-o--------0--------0--------0--------0-----0-|
G|-------------6--------6--------6--------6----|
D|-------6--------6--------6--------6----------|
A|-o-----------------------------------------0-|
E|---------------------------------------------|
  But if life weren't so divine that we didn't have to climb,
  I'd wait all my days for you.

e|------------3-------2-------3-------2----------------------------------------|
B|---------2-------3-------2-------3-----------0-------3-------0-------3-------|
G|------0-------0-------0-------0-----------2-------0-------2-------0----------|
D|-------------------------------------0-------0-------0-------0---------------|
A|-----------------------------------------------------------------------------|
E|-----------------------------------------------------------------------------|

e|--------3-----------2-----------3-----------2------------------------------------------------------|
B|-----2-----2-----3-----3-----2-----2-----3-----3--------0-------------3-----------0-----------3----|
G|--0-----------0-----------0-----------0--------------2-----2-------0-----0-----2-----2-----0-----0-|
D|--------------------------------------------------0--------------0----------0-----------0----------|
A|---------------------------------------------------------------------------------------------------|
E|---------------------------------------------------------------------------------------------------|

e|-----------------------------------------------------------------------------|
B|-o-------------------5-4----------------------------------2------0---------o-|
G|---4------4----------4-4----3------3----1--------3--------1------1----1------|
D|---4------4-----------------4------4----3--------4--------------------3------|
A|-o-------------------------------------------------------------------------o-|
E|-----------------------------------------------------------------------------|
     Why would you want to fall, when your own two feet can hold you upright?

e|-----------------------------------------------------------------------------|
B|-o-------------------5-4----------------------------------5------4---------o-|
G|---4------4----------4-4----3------3----1--------3--------4------4----3------|
D|---4------4-----------------4------4----3--------4--------------------4------|
A|-o-------------------------------------------------------------------------o-|
E|-----------------------------------------------------------------------------|
     Why would you want to fall, when you're only as strong as you're lonely?

e|---------------------------0----4----|
B|----------------0----0-----5----5----|
G|--1----1-/-4----4----4-/-6-6----6----|
D|-------------------------------------|
A|-------------------------------------|
E|-------------------------------------|

e|--7------4------7------4------5------3------5------3------2------||
B|--5------5------5------5------3------3------3------3------2------||
G|--6------6------6------6------4------0------4------0------2------||
D|-----------------------------------------------------------------||
A|-----------------------------------------------------------------||
E|-----------------------------------------------------------------||

************************************

/  - slide up
Добавлено: 29.09.2015
Другие материалы по этой песне:
  • Аккорды и текст

Страница создана 29.09.2015
http://primanota.ru/heather-kipnis/upright-chords.htm
Привет, Гость.
Предлагаем пройти революционный курс по гитаре.
Подарок от PrimaNota.Ru, забирай!