PrimaNota.ru - самый крупный в мире бесплатный архив песенных текстов, аккордов, табулатур и нот


Heather Kipnis - The Universe - таба, видео

Регистрация Запомнить меня
Войти через:  Facebook Google Twitter Vk Yandex Mail.ru

Heather Kipnis - The Universe - таба, видео

Печатать
Просмотров: 159
Уроки эстрадного вокала в Санкт-Петербурге
                             The Universe - Heather Kipnis
******************************************************************************************

Song Title: The Universe
Tab Artist: Heather Kipnis
E-mail: makelikeitall@gmail.com
Instruments: Voice, Guitar, French Horn, Shruti Box
ISMN: 979-0-58028-018-3

Tuning: Standard

Intro and verses:
e|---------------------------------------------------------------------------------------|
B|-o---------1-------------------1-------------------1-------------------1-------------o-|
G|--------------------2-------------------2-------------------3-------------------3------|
D|---------------3-------------------3-------------------2-------------------2-----------|
A|-o----3-------------------3-------------------3-------------------3------------------o-|
E|---------------------------------------------------------------------------------------|

The universe is trying to (love/know/feel/be) herself, everyday... in every way.
Everything you've ever (loved/known/felt/been), is her way to show you how to (love/know/feel/be).

bridge:
e|-------------------------------------------------------------------------------------|
B|---------1--------------------1-------------------3-------------------3--------------|
G|--------------------2-------------------2-------------------4-------------------4----|
D|--------------3--------------------3-------------------5-------------------5---------|
A|----3--------------------3-------------------5-------------------5-------------------|
E|-------------------------------------------------------------------------------------|

chorus:
e|-------------------------------------------|
B|-o----------3-------3-------5-------5----o-|
G|----------3-------3-------5-------5--------|
D|--------3-------3-------5-------5----------|
A|-o----1-------1-------3-------3----------o-|
E|-------------------------------------------|

Time is collapsing, baby. The world is colliding on itself.
Everything you've ever (loved/known/felt/been), is combined into the now.

Добавлено: 29.09.2015
Вам также может быть интересно:
Другие материалы по этой песне:
  • Аккорды и текст

Страница создана 29.09.2015
http://primanota.ru/heather-kipnis/universe-chords.htm
Привет, Гость.
Предлагаем пройти революционный курс по гитаре.
Подарок от PrimaNota.Ru, забирай!