PrimaNota.ru - самый крупный в мире бесплатный архив песенных текстов, аккордов, табулатур и нот


Heather Kipnis - Synchronicity - таба, видео

Регистрация Запомнить меня
Войти через:  Facebook Google Twitter Vk Yandex Mail.ru

Heather Kipnis - Synchronicity - таба, видео

Печатать
Просмотров: 95
                                SYNCHRONICITY - Heather Kipnis
******************************************************************************************

Song Title: Synchronicity
Tab Artist: heather Kipnis
E-mail: makelikeitall@gmail.com
Instruments: Guitar, Voice, French Horn, Djembe, Tingsha
ISMN: 979-0-58028-019-0

Tuning: Standard

Intro/Transitory Phrase: 
(Palm Muted)
e|-------------------------------------------------------------------------------------------|
B|-o-------------7---------------9--------------5---------------5---------------5----------o-|
G|------------6---------------8--------------6----------------7---7-----------7--------------|
D|----------7---------------8--------------6----------------6-------6-------6----------------|
A|-o---5-----------5-6-7----------7-9-4-----------454-------------------------------(7)----o-|
E|----------------------------------------------------7---------------7-----------7----------|
VERSE 1.A: 
There are things that happen at the same time,
And there's a reason why, we're moving on the same wave line.
You look up right when I look down, 
Or we both try to talk making one blurred sound.

CHORUS
e|---------------------------------------|
B|-o----------7-------------9----------o-|
G|------------6-------------8------------|
D|--------------------------8------------|
A|-o----------7------------------------o-|
E|------5---------5-6-7---------7-9-4----|
It's happening at the same time.
And there's a reason why
We're moving on the same wave line,
As it's passing by.

VERSE 1.B:
e|--------------------------------------------------------------------------|
B|--------------3-----------3---------------5---------------4-------------o-|
G|------------4---4-----------2---------------4/5-------------2-------------|
D|----------5---------4-----------4---------------5-------------4-----------|
A|------------------5-----------4---2-3-------------3-2-----------2-4-----o-|
E|----3---------------------------------------------------------------------|
These ancient waves make the time and place
My longing for you disintegrates.
Pebbles to sand now dissipate 
Through your body back to my own.

TRANSITORY PHRASE:
(Palm Muted)
e|-------------------------------------------------------------------------------------------|
B|-o-------------7---------------9--------------5---------------5---------------5----------o-|
G|------------6---------------8--------------6----------------7---7-----------7--------------|
D|----------7---------------8--------------6----------------6-------6-------6----------------|
A|-o---5-----------5-6-7----------7-9-4-----------454-------------------------------(7)----o-|
E|----------------------------------------------------7---------------7-----------7----------|
VERSE 2.A
She sits down at the table as both men turn to her.
She throws her head back and laughs at how great she says is.
Her friend shoots her a smile, just to show she's on her side,
But no one really knows who sparks that shine behind her eyes.

CHORUS
e|---------------------------------------|
B|-o----------7-------------9----------o-|
G|------------6-------------8------------|
D|--------------------------8------------|
A|-o----------7------------------------o-|
E|------5---------5-6-7---------7-9-4----|
It's happening at the same time.
And there's a reason why
We're moving on the same wave line,
As it's passing by.

VERSE 2.B:
e|--------------------------------------------------------------------------|
B|--------------3-----------3---------------5---------------4-------------o-|
G|------------4---4-----------2---------------4/5-------------2-------------|
D|----------5---------4-----------4---------------5-------------4-----------|
A|------------------5-----------4---2-3-------------3-2-----------2-4-----o-|
E|----3---------------------------------------------------------------------|
Trees on rivers reiterate
Turbulent reflective states
Riding afloat vast distances
From the bottom is where I'm hiding.

TRANSITORY PHRASE:
(Palm muted)
e|-------------------------------------------------------------------------------------------|
B|-o-------------7---------------9--------------5---------------5---------------5----------o-|
G|------------6---------------8--------------6----------------7---7-----------7--------------|
D|----------7---------------8--------------6----------------6-------6-------6----------------|
A|-o---5-----------5-6-7----------7-9-4-----------454-------------------------------(7)----o-|
E|----------------------------------------------------7---------------7-----------7----------|
VERSE 1.A: 
There are things that happen at the same time,
And there's a reason why, we're moving on the same wave line.
You look up right when I look down, 
Or we both try to talk making one blurred sound.

CHORUS
e|---------------------------------------|
B|-o----------7-------------9----------o-|
G|------------6-------------8------------|
D|--------------------------8------------|
A|-o----------7------------------------o-|
E|------5---------5-6-7---------7-9-4----|
It's happening at the same time.
And there's a reason why
We're moving on the same wave line,
As it's passing by.


************************************

| /   slide up

************************************
Добавлено: 29.09.2015
Другие материалы по этой песне:
  • Аккорды и текст

Страница создана 29.09.2015
http://primanota.ru/heather-kipnis/synchronicity-chords.htm
Привет, Гость.
Предлагаем пройти революционный курс по гитаре.
Подарок от PrimaNota.Ru, забирай!