PrimaNota.ru - самый крупный в мире бесплатный архив песенных текстов, аккордов, табулатур и нот


Heather Kipnis - Mutually Unrequited - таба, видео

Регистрация Запомнить меня
Войти через:  Facebook Google Twitter Vk Yandex Mail.ru

Heather Kipnis - Mutually Unrequited - таба, видео

Печатать
Просмотров: 96
                               MUTUALLY UNREQUITED - Heather Kipnis
*************************************************************************************************************

Song Title: Mutually Unrequited
Tab Artist: Heather Kipnis
E-mail: makelikeitall@gmail.com
Instruments: Voice, Guitar, Djembe, Maraca, Tingsha
ISMN: 979-0-58028-014-5

Tuning: Standard

VERSE 1:
e|---------5---------5---------5---------5-------------------------------------------|
B|---------6---------6---------6---------6--------5---------5---------5---------5----|
G|---------7---------7---------7---------7--------6---------6---------6---------6----|
D|---------7----7--------------7----7-------------7---------7---------7---------7----|
A|----5-------------------5-----------------------7----7--------------7----7---------|
E|-------------------------------------------5-------------------5-------------------|
   
  REPEAT 3X:
e|---------5---------5---------5---------5---------------------------------------------|
B|-0--------6---------6---------6---------6--------5---------5---------5---------5---0-|
G|---------7---------7---------7---------7--------6---------6---------6---------6------|
D|---------7----7--------------7----7-------------7---------7---------7---------7------|
A|-0---5-------------------5-----------------------7----7--------------7----7--------0-|
E|-------------------------------------------5-------------------5---------------------|
 
 (JUST ONCE)
e|---------4---------4---------4---------4---------4---------4---------4---------4---|
B|---------6---------6---------6---------6---------6---------6---------6---------6---|
G|---------6---------6---------6---------6---------6---------6---------6---------6---|
D|---------6----6--------------6----6--------------6----6--------------6----6--------|
A|----4-------------------4-------------------4-------------------4------------------|
E|-----------------------------------------------------------------------------------|
I want to love you,
Don't convince me I could 
I'd believe any lie you'd tell,
That's my weakness.

  REPEAT 3X:
e|---------5---------5---------5---------5---------------------------------------------|
B|-0--------6---------6---------6---------6--------5---------5---------5---------5---0-|
G|---------7---------7---------7---------7--------6---------6---------6---------6------|
D|---------7----7--------------7----7-------------7---------7---------7---------7------|
A|-0---5-------------------5-----------------------7----7--------------7----7--------0-|
E|-------------------------------------------5-------------------5---------------------|
 
 (JUST ONCE)
e|---------4---------4---------4---------4---------4---------4---------4---------4---|
B|---------6---------6---------6---------6---------6---------6---------6---------6---|
G|---------6---------6---------6---------6---------6---------6---------6---------6---|
D|---------6----6--------------6----6--------------6----6--------------6----6--------|
A|----4-------------------4-------------------4-------------------4------------------|
E|-----------------------------------------------------------------------------------|
Plus, I trust you
With my whole heart, how pathetic 
Cause you've been sending my love for you
To the stars.

BRIDGE IN TWO PARTS:
e|----------0----------------0----------0----------------0----|
B|-0------------2----------2----------------2----------2----0-|
G|--------3-------------3-------------3-------------3---------|
D|----2-------------4-------------2-------------4-------------|
A|-0--------------------------------------------------------0-|
E|------------------------------------------------------------|
I'm too beautiful, for everyone.

e|---------------4--------------4--------------4--------------4----|
B|-0---------5--------------5--------------4--------------6------0-|
G|---------6--------------6--------------6--------------6----------|
D|-----7--------------7--------------6--------------6--------------|
A|-0-------------------------------------------------------------o-|
E|-----------------------------------------------------------------|
Put you in the clouds, always above me.

e|----------0----------------0----------0----------------0----|
B|-0------------2----------2----------------2----------2----0-|
G|--------3-------------3-------------3-------------3---------|
D|----2-------------4-------------2-------------4-------------|
A|-0--------------------------------------------------------0-|
E|------------------------------------------------------------|
We're too beautiful.

e|---------------4--------------4--------------4--------------4----|
B|-0---------5--------------5--------------4--------------6------0-|
G|---------6--------------6--------------6--------------6----------|
D|-----7--------------7--------------6--------------6--------------|
A|-o-------------------------------------------------------------o-|
E|-----------------------------------------------------------------|
The world's our playground, you cannot catch me.

e|----------0----------------0----------0----------------0----|
B|-0------------2----------2----------------2----------2----0-|
G|--------3-------------3-------------3-------------3---------|
D|----2-------------4-------------2-------------4-------------|
A|-0--------------------------------------------------------0-|
E|------------------------------------------------------------|
You're too beautiful, too.

e|--------------4--------------4--------------4--------------4----|
B|----------5--------------5--------------4--------------6------0-|
G|--------6--------------6--------------6--------------6----------|
D|----7--------------7--------------6--------------6--------------|
A|--------------------------------------------------------------o-|
E|----------------------------------------------------------------|
Rain provokes tears, instead I will..... sing

TRANSITORY PHRASE:
e|---------------------------------------------------|
B|----~5-------------------~5----------5--6--5--6----|
G|---------~3---------~3---------~3------------------|
D|--------------~2-----------------------------------|
A|---------------------------------------------------|
E|---------------------------------------------------|

VERSE 2:
e|---------5---------5---------5---------5-------------------------------------------|
B|---------6---------6---------6---------6--------5---------5---------5---------5----|
G|---------7---------7---------7---------7--------6---------6---------6---------6----|
D|---------7----7--------------7----7-------------7---------7---------7---------7----|
A|----5-------------------5-----------------------7----7--------------7----7---------|
E|-------------------------------------------5-------------------5-------------------|
   
  REPEAT 3X:
e|---------5---------5---------5---------5---------------------------------------------|
B|-0--------6---------6---------6---------6--------5---------5---------5---------5---0-|
G|---------7---------7---------7---------7--------6---------6---------6---------6------|
D|---------7----7--------------7----7-------------7---------7---------7---------7------|
A|-0---5-------------------5-----------------------7----7--------------7----7--------0-|
E|-------------------------------------------5-------------------5---------------------|
 
 (JUST ONCE)
e|---------4---------4---------4---------4---------4---------4---------4---------4---|
B|---------6---------6---------6---------6---------6---------6---------6---------6---|
G|---------6---------6---------6---------6---------6---------6---------6---------6---|
D|---------6----6--------------6----6--------------6----6--------------6----6--------|
A|----4-------------------4-------------------4-------------------4------------------|
E|-----------------------------------------------------------------------------------|
You want to love me,
Don't convince me you do 
You'd create any lie to tell,
That's your weakness.

  REPEAT 3X:
e|---------5---------5---------5---------5---------------------------------------------|
B|-0--------6---------6---------6---------6--------5---------5---------5---------5---0-|
G|---------7---------7---------7---------7--------6---------6---------6---------6------|
D|---------7----7--------------7----7-------------7---------7---------7---------7------|
A|-0---5-------------------5-----------------------7----7--------------7----7--------0-|
E|-------------------------------------------5-------------------5---------------------|
 
 (JUST ONCE)
e|---------4---------4---------4---------4---------4---------4---------4---------4---|
B|---------6---------6---------6---------6---------6---------6---------6---------6---|
G|---------6---------6---------6---------6---------6---------6---------6---------6---|
D|---------6----6--------------6----6--------------6----6--------------6----6--------|
A|----4-------------------4-------------------4-------------------4------------------|
E|-----------------------------------------------------------------------------------|
Plus, you trust me
With your whole heart, how pathetic 
Cause I'd rather send your love for me
To the stars.

BRIDGE (FIRST PART ONLY):
e|----------0----------------0----------0----------------0----|
B|-0------------2----------2----------------2----------2----0-|
G|--------3-------------3-------------3-------------3---------|
D|----2-------------4-------------2-------------4-------------|
A|-0--------------------------------------------------------0-|
E|------------------------------------------------------------|
We too beautiful, for everyone.

CODA:
e|---------------------------------------------------|
B|----~5-------------------~5----------5--6--5--6----|
G|---------~3---------~3---------~3------------------|
D|--------------~2-----------------------------------|
A|---------------------------------------------------|
E|---------------------------------------------------|

************************************
| ~   vibrato
************************************
Добавлено: 29.09.2015
Другие материалы по этой песне:
  • Аккорды и текст

Страница создана 29.09.2015
http://primanota.ru/heather-kipnis/mutually-unrequited-chords.htm
Привет, Гость.
Предлагаем пройти революционный курс по гитаре.
Подарок от PrimaNota.Ru, забирай!