PrimaNota.ru - самый крупный в мире бесплатный архив песенных текстов, аккордов, табулатур и нот


Heathen - Pray For Death - таба, видео

Регистрация Запомнить меня
Войти через:  Facebook Google Twitter Vk Yandex Mail.ru

Heathen - Pray For Death - таба, видео

Печатать
Просмотров: 192
Band:  Heathen
Album: Breaking The Silence
Song:  Pray For Death

http://www.heathenmetal.com/

Copyright (c)  Combat (1987)
Version 1.0 - 24/7/06

Transcribed By: Ryan
Email:          ryanhidrio@hotmail.com


.  - palm mute           /  - slide up to
\  - slide down to       ~  - vibrato
h  - hammer on           b  - Bend
p  - pull off            Suffixes for bend
t  - tap                 f  - full bend    h - half bend
ph - pinched harmonic    q  - quarter bend t - tap bend
*  - see comment         ^  - Hold bend    r release bend
x  - Staccato            ~  - vibrato bend
,  - slight palm mute    () - ghost note, sustained note
"  - tremolo note        <> - Trill

Tuning E A D G B E

Intro / Riff 1

Guitar 1 (Right)
|---|----------------------------------------------------------------|
|---|----------------------------------------------------------------|
|---|----------------------------------------------------------------|
|---|-----------5-4---------5--4------------5-4----------------------|
|-5-|-7---------3-2-7-------3--2--7---------3-2-7-------5--5---------|
|-3-|-5-55555555----5-555555------5-55555555----5-5555553--3---------|
        ........      ......        ........      ......

Guitar 2 (Left)
|---|----------------------------------------------------------------|
|---|----------------------------------------------------------------|
|---|----------------------------------------------------------------|
|---|-----------5-4---------5--4------------5-4----------------------|
|-5-|-7---------3-2-7-------3--2--7---------3-2-7-------5--5---------|
|-3-|-5-------------5-------------5-------------5-------3--3---------| x2


Guitar 1 or 2 As above x2 while the other guitar solos


Verse Riff

Some soloing and whammy dives in the background for the 1st time through
||-------------------------------------------------------------------|
||-------------------------------------------------------------------|
||-------------------------------------------------------------------|
||--------------------------5-4------------------------54------------|
||-7-------------5-7--------3-2--7-------------5-7-----32------------|
||-5-5555555555553-5-555555------5-5555555555553-5-5555--------------|
     ............    ......        ............    ....
|-------------------------------------------------------------------||
|-------------------------------------------------------------------||
|-------------------------------------------------------------------||
|--------------------------5-4------------------------5-------------||
|-7-------------5-7--------3-2--7-------------5-7-----35------------||
|-5-5555555555553-5-555555------5-5555555555553-5-5555-3------------|| x2
    ............    ......        ............    ....


Chorus Riff
||-------------------------------------------------------------------|
||-------------------------------------------------------------------|
||-------------------------------------------------------------------|
||1010----- 12-10-9------7--5-7-------------5-7-------7---4-5--------|
||-8-8------10--8-7------5--3-5-5555555555555-5-55555557--2-3--------|
||-----------------------------------------------------5-------------|
                                ............    ......

|-------------------------------------------------------------------|
|-------------------------------------------------------------------|
|-------------------------------------------------------------------|
|-4--5-7------5-----------------------------------------------------|
|-2--3-5------5------7----------------------------------------------|
|--------------------5-5555555555555555555555555555-----------------|
                       ............................

|-------------------------------------------------------------------|
|-------------------------------------------------------------------|
|-------------------------------------------------------------------|
|1010----- 12-10-9------7--5-7-------------5-7-------7-7-7-5--------|
|-8-8------10--8-7------5--3-5-5555555555555-5-5555555-5-5-3--------|
|-------------------------------------------------------------------|
                               ............    ......
|-------------------||---|
|-------------------||---|
|-------------------||---|
|-------5-4-5-7-----||---|
|-3333333-2-3-5---5-||-7-|
|-----------------3-||-5-|  x1
  ......

Main Riff     x2 (Soloing over 2nd time)
Verse Riff    x2
Chorus        x1


Riff 2

Guitar 2 joins in on the 2nd line with drums
||-------------------------------------------------------------------|
||-------------------------------------------------------------------|
||-------------------------------------------------------------------|
||-------------------------------------------------------------------|
||-0-002-0000002-3-0-005-0000005-3-0-002-0000002-3-0-003-3333333333--|
||-------------------------------------------------------------------|
   . ... ......    . ... ......    . ... ......    . ... ..........

|-------------------------------------------------------------------||
|-------------------------------------------------------------------||
|-------------------------------------------------------------------||
|-------------------------------------------------------------------||
|-0-002-0000002-3-0-005-0000005-3-0-002-0000002-3-3-320-------------||
|-------------------------------------------------------3333333333--|| x2
  . ... ......    . ... ......    . ... ......  . .     ..........


Solo Guitar 2

Guitar 1 Riff Under Solo x2
|-------------------------------------------------------------------|
|-------------------------------------------------------------------|
|-------------------------------------------------------------------|
|------------5-----------4--5-7-----------5--4----------------------|
|-7-7--------3-33333333332--3-5-55555555553--2-7--------------------|
|-5-5----5555----------------------------------5-5555555-5555555----| x2
         ....  ..........       ..........       ....... .......
 
Guitars swap around duties

Riff 2 x2

Solo Riff 2 
Both Guitars
|-------------------------------------------------------------------|
|-------------------------------------------------------------------|
|-------------------------------------------------------------------|
|-9--9---9--9-------------------------------------------------------|
|-7-77---7--7-5-------5-4--5-7-------7-5--4-2-------2---------------|
|-------------3-3333333-2--3-5-5555555-3--2-0-0000000-000000--------| x2
                ......         ......         ......  ......

Solo Guitar 1 
Solo Riff 2 under solo Guitar 2 x2

Outro Both Guitars
||----------------------------------------------------|
||----------------------------------------------------|
||----------------------------------------------------|
||-9------7-----------4-5---9------7----------10-9----|
||-7------5-----2-----2-3---7------5-----2-----8-7----|
||---0000---00000-0000---000--0000---00000-0000---000-|
     ....   ....  ....   ...  ....   ....  ....   ...

|----------------------------------------------------|
|----------------------------------------------------|
|----------------------------------------------------|
|-9------7-----------4-5---5--4----------------------|
|-7------5-----2-----2-3---3--2--5--4----------------|
|---0000---00000-0000---000------3--2----------------|
    ....   ....  ....   ...

|----------------------------------------------------|
|----------------------------------------------------|
|----------------------------------------------------|
|-9------7-----------4-5---9------7----------10-9----|
|-7------5-----2-----2-3---7------5-----2-----8-7----|
|-7-0000-5-00000-0000---0007-0000-5-00000-0000---000-|
    ....   ....  ....   ...  ....   ....  ....   ...

|----------------------------------------------------||
|----------------------------------------------------||
|----------------------------------------------------||
|-9------7-----------4-5---5--4--------5--4--2-------||
|-7------5-----2-----2-3---3--2--5--4--3--2--0--5----|| 
|-7-0000-5-00000-0000---000------3--2-----------3----|| x1
    ....   ....  ....   ...

|----------------------------------------------------|
|----------------------------------------------------|
|----------------------------------------------------|
|-5--4--5--7--9--99999\------------------------------| Guitar 1 
|-3--2--3--5--7--77777\------------------------------|
|----------------------------------------------------|
                                                                Together
|----------------------------------------------------|
|----------------------------------------------------|
|----------------------------------------------------|
|-------------7--99996\------------------------------| Guitar 2 
|-7--5--7--9-----------------------------------------|
|----------------------------------------------------|


END
Добавлено: 05.07.2012
Другие материалы по этой песне:

Страница создана 05.07.2012
http://primanota.ru/heathen/pray-for-death-chords.htm
Привет, Гость.
Предлагаем пройти революционный курс по гитаре.
Подарок от PrimaNota.Ru, забирай!